Song name
# A B C D E F G H I J K L M N O P Q R S T U V W X Y Z

Nofx - Stickin In My Eyes tab

#

Date: 	Sat, 17 Feb 1996 11:34:59 -0400
From: David Kaufman 
Subject: TAB:  by    

Song: Sticki'n In My Eyes
Band: NOFX
Tabbed by: Dave Kaufman (ak002@ccn.cs.dal.ca)

----------------------------------------------------------------
----------------------------------------------------------------
---12-12--12-12-12----11-11--11-11-11-11-11----12-12--12-12-12--
---10-10--10-10-10----9--9---9--9--9--9--9-----10-10--10-10-10--
---10-10--10-10-10----9--9---9--9--9--9--9-----10-10--10-10-10--
----------------------------------------------------------------

----------------------------------------------------------------
----------------------------------------------------------------
---9--9-9-9----8--8-8-8-----------------------------------------
---7--7-7-7----6--6-6-6-----------------------------------------
---7--7-7-7----6--6-6-6-----------------------------------------
----------------------------------------------------------------
 
                           repeat a few times


If you have the rest please post it.   Thanks Dave Kaufman
Tap to rate this tab
# A B C D E F G H I J K L M N O P Q R S T U V W X Y Z