Song name
# A B C D E F G H I J K L M N O P Q R S T U V W X Y Z

Nofx - The Brews tab

----------------------------------------------------------------------------
			     Nofx - The Brews
----------------------------------------------------------------------------
Tabbed by: L.A.M.F. 77'


Tuning: Standard
 
  Intro/Verse:

e|-------------------------------------------------------------------------|
B|-------------------------------------------------------------------------|
G|---4------------------------4--------------------------------------------|
D|---4---4---2---1---4-(3x)---4--------------------------------------------|
A|---2---4---2---2---4--------2--------------------------------------------|
E|-------2---0-------2-----------------------------------------------------|

  Chorus:

e|-------------------|
B|-------------------|
G|-----------4-------|
D|---2---4---4-------|
A|---2---4---2-------|
E|---0---2-----------|

  Bridge:

e|-------------------------------------------------------------------------|
B|-------------------------------------------------------------------------|
G|---4---7----------------7----------------7----------------7--------------|
D|---4---7---7----2---5---7---7----2---5---7---7----2---5---7---7----2---5-|
A|---2---5---7----2---5---5---7----2---5---5---7----2---5---5---7----2---5-|
E|-----------5----0---3-------5----0---3-------5----0---3-------5----0---3-|

     End Bridge on d5 (power chord at 5th fret on the A string)

  Chorus/Outro:

e|------------------|
B|------------------|
G|-----------7------|
D|---5---7---7------|
A|---5---7---5------|
E|---3---5----------|




Tap to rate this tab
# A B C D E F G H I J K L M N O P Q R S T U V W X Y Z