Song name
# A B C D E F G H I J K L M N O P Q R S T U V W X Y Z

Nofx - First Call tab

Help us improve GuitareTab! Take a short survey!
Nofx - First Call
Album: Coaster
sfc

Intro/Verse
   C     Em      F      C
e--8--8--7--7-|--8--8---8--8-|
B--8--8--8--8-|-10-10---8--8-|
G--9--9--9--9-|-10-10---9--9-|
D-10-10--9--9-|-10-10--10-10-|
A-------------|--------------|
E-------------|--------------|

   Am    G       F      C
e--5--5--3--3-|--8--8---8--8-|
B--5--5--3--3-|-10-10---8--8-|
G--5--5--4--4-|-10-10---9--9-|
D--7--7--5--5-|-10-10--10-10-|
A-------------|--------------|
E-------------|--------------|

   Em     F      C      Am
e--7--7---8--8-|--8--8--5--5-|
B--8--8--10-10-|--8--8--5--5-|
G--9--9--10-10-|--9--9--5--5-|
D--9--9--10-10-|-10-10--7--7-|
A--------------|-------------|
E--------------|-------------|

   C     Em      F      C
e--8--8--7--7-|--8--8---8--8-|
B--8--8--8--8-|-10-10---8--8-|
G--9--9--9--9-|-10-10---9--9-|
D-10-10--9--9-|-10-10--10-10-|
A-------------|--------------|
E-------------|--------------|

   C5    E5     F5     C5
e-------------|-------------|
B-------------|-------------|
G---------9-9-|-10-10-------|
D--10-10--9-9-|-10-10-10-10-|
A--10-10--7-7-|-8--8--10-10-|
E--8--8-------|-------8--8--|

   A5   G5      F5     C5
e-----------|-------------|
B-----------|-------------|
G-----------|-10-10-------|
D--7-7--5-5-|-10-10-10-10-|
A--7-7--5-5-|-8--8--10-10-|
E--5-5--3-3-|-------8--8--|

   E5     F5     C5     A5
e-------------|------------|
B-------------|------------|
G--9-9--10-10-|------------|
D--9-9--10-10-|-10-10--7-7-|
A--7-7--8--8--|-10-10--7-7-|
E-------------|-8--8---5-5-|

   C5    E5     F5     C5
e-------------|-------------|
B-------------|-------------|
G--------9--9-|-10-10-------|
D--10-10-9--9-|-10-10-10-10-|
A--10-10-7--7-|-8--8--10-10-|
E--8--8-------|-------8--8--|


Chorus
  A5                 F5
e------------------|-------------------------|
B------------------|-------------------------|
G------------------|-10-10-10-10-10-10-10-10-|
D--7-7-7-7-7-7-7-7-|-10-10-10-10-10-10-10-10-|
A--7-7-7-7-7-7-7-7-|-8--8--8--8--8--8--8--8--|
E--5-5-5-5-5-5-5-5-|-------------------------|
pm   . . .   . .

   C5                E5
e------------------|-----------------|
B------------------|-----------------|
G--5-5-5-5-5-5-5-5-|-9-9-9-9-9-9-9-9-|
D--5-5-5-5-5-5-5-5-|-9-9-9-9-9-9-9-9-|
A--3-3-3-3-3-3-3-3-|-7-7-7-7-7-7-7-7-|
E------------------|-----------------|          x2
pm   . . .   . .



SOLO

   C5    E5     F5     C5
e-------------|-------------|
B-------------|-------------|
G---------9-9-|-10-10-------|
D--10-10--9-9-|-10-10-10-10-|
A--10-10--7-7-|-8--8--10-10-|
E--8--8-------|-------8--8--|

   A5   G5      F5     C5
e-----------|-------------|
B-----------|-------------|
G-----------|-10-10-------|
D--7-7--5-5-|-10-10-10-10-|
A--7-7--5-5-|-8--8--10-10-|
E--5-5--3-3-|-------8--8--|

   E5     F5     C5     A5
e-------------|------------|
B-------------|------------|
G--9-9--10-10-|------------|
D--9-9--10-10-|-10-10--7-7-|
A--7-7--8--8--|-10-10--7-7-|
E-------------|-8--8---5-5-|

   C5    E5     F5     C5
e-------------|-------------|
B-------------|-------------|
G--------9--9-|-10-10-------|
D--10-10-9--9-|-10-10-10-10-|
A--10-10-7--7-|-8--8--10-10-|
E--8--8-------|-------8--8--|

end
Related for First Call tab