Guitaretab - guitar tabs
Song name
# A B C D E F G H I J K L M N O P Q R S T U V W X Y Z

Nofx - My Orphan Year tab

NOFX - COASTER

MY ORPHAN YEAR

TABBED BY AFONSO RAMÔA JR.
afonsoramoa@gmail.com

INTRO



  |------- 2X -----------|
     
E||----------------------|----------------------|----------------------|
B||----------------------|----------------------|----------------------|
G||----------------------|----------------------|----------------------|
D||--7----7----7----7----|--6----6----6----6----|--7----7----7----7----|
A||--0-------------------|----------------------|--6-------------------|
E||----------------------|----------------------|----------------------|


   
E||----------------------|----------------------|----------------------|
B||----------------------|----------------------|----------------------|
G||----------------------|----------------------|----------------------|
D||--6----6----6----6----|--4----4----4----4----|--7----7----7----7----|
A||----------------------|----------------------|--5-------------------|
E||----------------------|----------------------|----------------------|


E||----------------------|----------------------|----------------------|
B||----------------------|----------------------|----------------------|
G||----------------------|----------------------|----------------------|
D||--6----6----6----6----|--4----4----4----4----|----------------------|
A||----------------------|----------------------|----------------------|
E||----------------------|----------------------|----------------------|



AQUI ENTRA A BATERIA COM A 2ª GUITARRA
HERE START THE DRUMS WITH THE 2ND GUITAR

1ª - EL HEFE
2ª - ERIC MELVIN

	
	1ª
E||----------------------|----------------------|----------------------|
B||----------------------|----------------------|----------------------|
G||----------------------|----------------------|----------------------|
D||--7----7----7----7----|--6----6----6----6----|--4----4----4----4----|
A||--0-------------------|----------------------|----------------------|
E||----------------------|----------------------|----------------------|

	2ª
E||----------------------|----------------------|----------------------|
B||----------------------|----------------------|----------------------|
G||----------------------|----------------------|----------------------|
D||--7-------------------|----------------------|----------------------|
A||--7-------------------|----------------------|----------------------|
E||-/5-------------------|----------------------|----------------------|

   	1ª
E||----------------------|----------------------|----------------------|
B||----------------------|----------------------|----------------------|
G||----------------------|----------------------|----------------------|
D||--7----7----7----7----|--6----6----6----6----|--4----4----4----4----|
A||--6-------------------|----------------------|----------------------|
E||----------------------|----------------------|----------------------|

	2ª
E||----------------------|----------------------|----------------------|
B||----------------------|----------------------|----------------------|
G||----------------------|----------------------|----------------------|
D||----------------------|----------------------|----------------------|
A||----------------------|----------------------|----------------------|
E||-/11------------------|----------------------|----------------------|

	1ª
E||----------------------|----------------------|----------------------|
B||----------------------|----------------------|----------------------|
G||----------------------|----------------------|----------------------|
D||--7----7----7----7----|--6----6----6----6----|--4----4----4----4----|
A||--5-------------------|----------------------|----------------------|
E||----------------------|----------------------|----------------------|

	2ª
E||----------------------|----------------------|----------------------|
B||----------------------|----------------------|----------------------|
G||----------------------|----------------------|----------------------|
D||--12------------------|----------------------|----------------------|
A||--12------------------|----------------------|----------------------|
E||--10------------------|----------------------|----------------------|


AQUI COMEÇA O HARDCORE
HERE START THE HARDCORE
	1ª
E||----------------------|----------------------|----------------------|
B||----------------------|----------------------|----------------------|
G||----------------------|----------------------|----------------------|
D||--7-------------------|----------------------|----------------------|
A||--7-------------------|----------------------|----------------------|
E||--5-------------------|----------------------|----------------------|
	
	2ª
E||----------------------|----------------------|----------------------|
B||--10------------------|--9-------------------|--7-------------------|
G||----------------------|----------------------|----------------------|
D||--7-------------------|--6-------------------|--4-------------------|
A||----------------------|----------------------|----------------------|
E||----------------------|----------------------|----------------------|

	1ª
E||----------------------|----------------------|----------------------|
B||----------------------|----------------------|----------------------|
G||----------------------|----------------------|----------------------|
D||--4-------------------|----------------------|----------------------|
A||--4-------------------|----------------------|----------------------|
E||--2-------------------|----------------------|----------------------|

	2ª
E||----------------------|----------------------|----------------------|
B||--10------------------|--9-------------------|--7-------------------|
G||----------------------|----------------------|----------------------|
D||--7-------------------|--6-------------------|--4-------------------|
A||----------------------|----------------------|----------------------|
E||----------------------|----------------------|----------------------|
[ Tab from: http://www.guitaretab.com/n/nofx/185037.html ]
	1ª
E||----------------------|----------------------|----------------------|
B||----------------------|----------------------|----------------------|
G||--7-------------------|----------------------|----------------------|
D||--7-------------------|----------------------|----------------------|
A||--5-------------------|----------------------|----------------------|
E||----------------------|----------------------|----------------------|

	2ª
E||----------------------|----------------------|----------------------|
B||--10------------------|--9-------------------|--7-------------------|
G||----------------------|----------------------|----------------------|
D||--7-------------------|--6-------------------|--4-------------------|
A||----------------------|----------------------|----------------------|
E||----------------------|----------------------|----------------------|




A PARADA - EL HEFE
THE PAUSE

E||----------------------|----------------------|----------------------|
B||----------------------|----------------------|----------------------|
G||----------------------|----------------------|----------------------|
D||--7-------------------|----------------------|----------------------|
A||--7-------------------|----------------------|----------------------|
E||--5-------------------|----------------------|----------------------|



   A5
My father had dementia

   C#m
He lied in bed for months

	F#m
Once in a while he'd call me

    Dm
And ask me to fly down

  B5
I told him that I'd love to
   
    D5
But I had things to do

          A5       A5/G#   F#5
And so he died without his son

  B5             D5                (slide com a palheta)
I heard about it drunk after a show



My mother battled cancer
For over seven years
I nursed her and I held her
When time was running out
The night before she left me
I drank scotch all night
And thanked her for everything she'd done
Raising me alone wasn't much fun


    
So,

A5
Dad I can forgive you, 

    E5 (5ª corda)
But I'll never forget, 

B5                             
Months I wouldn't see you and

     D5
when I did You'd be

A5
out with your friends all night

 E5 (5ª corda)
Alone and only nine
  
  B5
I watched the outer limits

      D5
And scared out of my mind

   A5
I wonder if you felt the same

                    A5 A5/G#
The days before you died



(Eric Melvin)
E||----------------------|
B||---10-----------------|
G||----------------------|
D||---7------------------|
A||----------------------|
E||----------------------|

(El Hefe)
      F#5
   I wonder if you even knew
   Why I wouldn't come around

(Eric Melvin)
E||----------------------|
B||---10-----------------|
G||----------------------|
D||---7------------------|
A||----------------------|
E||----------------------|

(El Hefe)
      B5
   I bet if you had been there, 
   There wouldn't be this song

A5 (abafado / palm mute)

       A5 A5/G# F#5
2006 

goodbye parents
    
    F#5 F#5/F  Dm
For once I am sincere

                   A
2006, my orphan year


AQUI É O FINAL
HERE'S THE END


1ª - EL HEFE
2ª - ERIC MELVIN

	
	1ª
E||----------------------|----------------------|----------------------|
B||----------------------|----------------------|----------------------|
G||----------------------|----------------------|----------------------|
D||--7----7----7----7----|--6----6----6----6----|--4----4----4----4----|
A||--0-------------------|----------------------|----------------------|
E||----------------------|----------------------|----------------------|

	2ª
E||----------------------|----------------------|----------------------|
B||----------------------|----------------------|----------------------|
G||----------------------|----------------------|----------------------|
D||----------------------|----------------------|----------------------|
A||----------------------|----------------------|----------------------|
E||--5-------------------|----------------------|----------------------|

   	1ª
E||----------------------|----------------------|----------------------|
B||----------------------|----------------------|----------------------|
G||----------------------|----------------------|----------------------|
D||--7----7----7----7----|--6----6----6----6----|--4----4----4----4----|
A||--6-------------------|----------------------|----------------------|
E||----------------------|----------------------|----------------------|

	2ª
E||----------------------|----------------------|----------------------|
B||----------------------|----------------------|----------------------|
G||----------------------|----------------------|----------------------|
D||----------------------|----------------------|----------------------|
A||----------------------|----------------------|----------------------|
E||-/11------------------|----------------------|----------------------|

	1ª
E||----------------------|----------------------|----------------------|
B||----------------------|----------------------|----------------------|
G||----------------------|----------------------|----------------------|
D||--7----7----7----7----|--6----6----6----6----|--4----4----4----4----|
A||--5-------------------|----------------------|----------------------|
E||----------------------|----------------------|----------------------|

	2ª
E||----------------------|----------------------|----------------------|
B||----------------------|----------------------|----------------------|
G||----------------------|----------------------|----------------------|
D||--12------------------|----------------------|----------------------|
A||--12------------------|----------------------|----------------------|
E||--10------------------|----------------------|----------------------|

	1ª
E||----------------------|----------------------|----------------------|
B||----------------------|----------------------|----------------------|
G||----------------------|----------------------|----------------------|
D||-/7----7----7----7----|--7----7----7----7----|--7----7----7----7----|
A||----------------------|----------------------|----------------------|
E||----------------------|----------------------|----------------------|

	2ª
E||----------------------|----------------------|----------------------|
B||----------------------|----------------------|----------------------|
G||----------------------|----------------------|----------------------|
D||----------------------|----------------------|----------------------|
A||----------------------|----------------------|----------------------|
E||-/2-------------------|----------------------|----------------------|


Related for My Orphan Year tab
Advertisement will be closed in 10 seconds