Song name
# A B C D E F G H I J K L M N O P Q R S T U V W X Y Z

Nofx - One Million Coasters tab

-----------------------------------------------------------------
One Million Coasters - NoFX
-----------------------------------------------------------------
Tabbed by: Martyn Pollard
Email:circusfreak13@hotmail.co.uk

Tuning: Standard

Structure follows so if it looks confusing, read that. The 2 guitars may not 
be completely aligned in the tab so don't follow that tab if you want to 
know exactly when each guitar plays over the other... That's easy enough to 
hear from the track anyway. Strumming my not be exact at points but that's
not hard to pick up from listening to the song.

Intro
Guitar 1
e|-------------------------------|------------------------------------------|
B|15^(17)-15^(17)v-12-13---------|-12----------------12-13-15-15^-(17)-v-13~|
G|-----------------------14~-----|-------------12-14------------------------|
D|-------------------------------|----12-14-15------------------------------|
A|-------------------------------|------------------------------------------|
E|-------------------------------|------------------------------------------|

Guitar 2
e|-------------------------------|------------------------------------------|
B|-------------------------------|------------------------------------------|
G|-5-5-5--------------7-7-7-7777-|------------------------------------------|
D|-5-5-5--------------7-7-7-7777-|-5-5-5------------------------7-7-7-7777--|
A|-3-3-3--------------5-5-5-5555-|-5-5-5------------------------7-7-7-7777--|
E|-------------------------------|-3-3-3------------------------5-5-5-5555--|

Guitar 1
e|-------13--12-13-15-12-13-12-------|----------------12/13-12--------------|
B|----13-----------------------13----|-------------------------13-12-13-15--|
G|-12-----------------------------12-|-12-12h13-12--------------------------|
D|-----------------------------------|-------------15-----------------------|
A|-----------------------------------|--------------------------------------|
E|-----------------------------------|--------------------------------------|

Guitar 2 - Not entirely sure here but i think the 2nd chord is the bottom
of an open C. Found it quite hard to hear how many notes are played.
e|-----------------------------------|--------------------------------------|
B|-----------------------------------|--------------------------------------|
G|-----------------------0-0-0-0000--|--------------------------------------|
D|-3-3-3-----------------2-2-2-2222--|-3-3-3--------------------5-5-5-5555--|
A|-3-3-3-----------------3-3-3-3333--|-3-3-3--------------------5-5-5-5555--|
E|-1-1-1-----------------0-0-0-0000--|-1-1-1--------------------3-3-3-3333--|

Verse
Guitar 1
e|--------------------------------------------------------------------------|
B|--------------------------------------------------------------------------|
G|-55-55555-55-55555--------------------------------------------------------|
D|-55-55555-55-55555-77-77777-77-77777-33-33333-33-33333-55-55555-55-55555--|
A|-33-33333-33-33333-77-77777-77-77777-33-33333-33-33333-55-55555-55-55555--|
E|-------------------55-55555-55-55555-11-11111-11-11111-33-33333-33-33333--|

Chorus
Guitar 1
e|--------------------------------------------------------------------------|
B|--------------------------------------------------------------------------|
G|-55-5-555-55-5-555-77-7-777-77-7-777--------------------------------------|
D|-55-5-555-55-5-555-77-7-777-77-7-777-55-5-555-55-5-555-77-7-777-77-7-777--|
A|-33-3-333-33-3-333-55-5-555-55-5-555-55-5-555-55-5-555-77-7-777-77-7-777--|
E|-------------------------------------33-3-333-33-3-333-55-5-555-55-5-555--|

Guitar 2
e|--------------------------------------------------------------------------|
B|-5~-----------------6~---------------8~----------------10~----------------|
G|-5~-----------------7~---------------7~----------------9~-----------------|
D|-5~-----------------7~---------------5~----------------7~-----------------|
A|-3~-----------------5~----------------------------------------------------|
E|--------------------------------------------------------------------------|

Guitar 1
e|--------------------------------------------------------------------------|
B|--------------------------------------------------------------------------|
G|-------------------00-0-000-00-0-000--------------------------------------|
D|-33-3-333-33-3-333-22-2-222-22-2-222-33-3-333-33-3-333-55-5-555-55-5-555--|
A|-33-3-333-33-3-333-33-3-333-33-3-333-33-3-333-33-3-333-55-5-555-55-5-555--|
E|-11-1-111-11-1-111-00-0-000-00-0-000-11-1-111-11-1-111-33-3-333-33-3-333--|

Guitar 2
e|--------------------------------------------------------------------------|
B|-6~----------------5~----------------6~----------------8~-----------------|
G|-5~----------------4~----------------5~----------------7~-----------------|
D|-3~----------------2~----------------3~----------------5~-----------------|
A|--------------------------------------------------------------------------|
E|--------------------------------------------------------------------------|

Post-Chorus
Guitar 1 + 2
e|-----------------------|
B|-5-5-5-5555-5-5-5-5555-|
G|-5-5-5-5555-5-5-5-5555-|
D|-3-3-3-3333-3-3-3-3333-|
A|-----------------------|
E|-----------------------|

Verse 2
Guitar 1 + 2
e|--------------------------------------------------------------------------|
B|--------------------------------------------------------------------------|
G|-55-55555-55-55555--------------------------------------------------------|
D|-55-55555-55-55555-77-77777-77-77777-33-33333-33-33333-55-55555-55-55555--|
A|-33-33333-33-33333-77-77777-77-77777-33-33333-33-33333-55-55555-55-55555--|
E|-------------------55-55555-55-55555-11-11111-11-11111-33-33333-33-33333--|

Outro
Guitar 1
e|----------------------------------------|---------------------12-13-15-12-|
B|15^(17)-15^(17)-15^(17)v-13p12h13p12----|-----12------12-13-15------------|
G|-------------------------------------14~|12h14---12h14--------------------|
D|----------------------------------------|---------------------------------|
A|----------------------------------------|---------------------------------|
E|----------------------------------------|---------------------------------|

Guitar 2
e|----------------------------------------|---------------------------------|
B|----------------------------------------|---------------------------------|
G|-5-5-5-----------------------7-7-7-7777-|---------------------------------|
D|-5-5-5-----------------------7-7-7-7777-|-5-5-5---------------7-7-7-7777--|
A|-3-3-3-----------------------5-5-5-5555-|-5-5-5---------------7-7-7-7777--|
E|----------------------------------------|-3-3-3---------------5-5-5-5555--|

Guitar 1
e|-12/13-12-12----------15-12-13-15-12-|------------------------------------|
B|-------------13----13----------------|------------------------------------|
G|----------------12-------------------|-12-12h14-12------------------------|
D|-------------------------------------|-------------15-14-12-14-15-12------|
A|-------------------------------------|------------------------------------|
E|-------------------------------------|------------------------------------|

Guitar 2
e|-------------------------------------|--------------------------------------|
B|-------------------------------------|--------------------------------------|
G|-------------------------0-0-0-0000--|--------------------------------------|
D|-3-3-3-------------------2-2-2-2222--|-3-3-3--------------------5-5-5-5555--|
A|-3-3-3-------------------3-3-3-3333--|-3-3-3--------------------5-5-5-5555--|
E|-1-1-1-------------------0-0-0-0000--|-1-1-1--------------------3-3-3-3333--|

Sorry, no light outro tabbed. There's too bigger mix of things going on for
me to want to.

| /  slide up
| \  slide down
| h  hammer-on
| p  pull-off
| ~  vibrato/ hold note
| +  harmonic
| x  Mute note
| ^  Bend up
| v  Bend down

Structure:

Intro
Verse x 2
Chorus
Post Chorus
Verse 2 x 2
Chorus
Outro

In the chorus the 2 guitars play seperate chords, the higher chords are 
quite hard to hear exactly so let me know if ou've got them better than i 
have :)

Lyrics:

Coasters and Frisbees
Fish lures for deep seas
Mobiles for infants
They make great Christmas tree ornaments

Bring the whole family,
parking is free
You're going to love
our selection
of 8-track tapes,
Blank floppy discs,
mobile car phones,
Atari 2600 consoles

Guard rail reflectors
Hold 'em hand protectors
Halloween handouts
We got a ten-thousand foot warehouse
Full of cassette tapes,
Persimmon woods,
Ink jet printers,
telephone booths,
Sony Walkman's,
Kodak 110's,
Analog TV's,
Betamax's
Tap to rate this tab
# A B C D E F G H I J K L M N O P Q R S T U V W X Y Z