Song name
# A B C D E F G H I J K L M N O P Q R S T U V W X Y Z

Nofx - Eddie Bruce And Paul tab

-------------------------------------------------------------------------------
			     Bruce, Eddie and Paul - NOFX
-------------------------------------------------------------------------------
Tabbed by:Tok-e-yo John
Email:myspace.com/one_cray_bean
This does not contain no crazy solo's so I apologize ahead of time = (
And to further be a d*ck I'm not putting the strumming either and this is
not perfect so please correct if possible

Tuning:standard
 intro-repeat this 2x
e|---------------------------------------------------------------------------|
B|---------------------------------------------------------------------------|
G|------------------------------12------7------------------------------------|
D|------------------------5-----12------7------------------------------------|
A|-2-0-0-3-0-0--5-0-6-0-7-------10------5------------------------------------|
E|---------------------------------------------------------------------------|
 verse-listen to the song to get the actual strumming and palm mute
e|---------------------------------------------------------------------------|
B|---------------------------------------------------------------------------|
G|---------------7-----------------------------------------------------------|
D|---7---7---4---7-----------------------------------------------------------|
A|---7---7---4---5-----------------------------------------------------------|
E|---5---4---2---------------------------------------------------------------|
 second part of verse
e|-------------------------5-------------------------------------------------|
B|-------------------------6-------------------------------------------------|
G|-------7-------9-------7-7-------------------------------------------------|
D|---4---7---7---9---9---7-7-------------------------------------------------|
A|---4---5---7---7---9---5-5-------------------------------------------------|
E|---2-------5-------7-------------------------------------------------------|
 lil part you do before you repeat the intro thing-again listen to song     strummimg 
palm muting
e|---------------------------------------------------------------------------|
B|---------------------------------------------------------------------------|
G|----------------------------------------------------12-14------------------|
D|---7----------------------5---4---------------------12-14--5-4-------------|
A|---7---3-2-0-5-0---3-2-0--5---4--3-2-0-5-0--3-2-0---10-12--5-4-------------|
E|---5----------------------3---2----------------------------3-2-------------|
 repeat intro, both verse parts, and lil part before verse then this is the outro with 
sick ass solo that only El Hefe can pull off..not me tho
e|---------------------------------------------------------------------------|
B|---------------------------------------------------------------------------|
G|---------------------------------------------------------------------------|
D|--7---5---3---5------------7-----------------------------------------------|
A|--7---5---3---5------------7-----------------------------------------------|
E|--5---3---1---3---end on---5-----------------------------------------------|
 then this after bass solo its the same but tempo goes slow to fast
e|--5---3---1---3------------------------------------------------------------|
B|--5---3---1---3------------------------------------------------------------|
G|--6---4---2---4------------------------------------------------------------|
D|--7---5---3---5------------------------------------------------------------|
A|--7---5---3---5------------------------------------------------------------|
E|--5---3---1---3------------------------------------------------------------|
  this part i'm not too sure of but sounds good anyways
  *single chords are for palm muting...repeat 2x i think
e|---------------------------------------------------------------------------|
B|---------------------------------------------------------------------------|
G|---5--7-------------------------------------------------5-7----------------|
D|---5--7--5--7-----10-9-7-5-----10-9-7-3-----10-9-7-5----5-7-5-7------------|
A|---3--5--5--7-----10-9-7-5-----10-9-7-3-----10-9-7-5----3-5-5-7------------|
E|---------3--5-*5--8--7-5-3-*3--8--7-5-1-*1--8--7-5-3-*3-----3-5------------|

 i just can't get the ending because i'm getting tired and i'd like to think someone 
complete this tab cuz we all luv judas priest right????
Tap to rate this tab
 
# A B C D E F G H I J K L M N O P Q R S T U V W X Y Z