Song name
# A B C D E F G H I J K L M N O P Q R S T U V W X Y Z

Nofx - The Black And White tab

NOFX
The Black & White
Heavy Petting Zoo


Intro:
  G
 pm____________________________________
e--------------------------------------|
B--------------------------------------|
G-44444444-22222222-00000000-2222-0000-|
D--------------------------------------|
A--------------------------------------|
E--------------------------------------|

  A
 pm____________________________________
e--------------------------------------|
B--------------------------------------|
G-55555555-44444444-22222222-0000-2222-|
D--------------------------------------|
A--------------------------------------|
E--------------------------------------|

  C
 pm____________________________________
e--------------------------------------|
B-------5--------5--------5--------5---|
G----55--5----55--5----55--5----55--5--|
D-555--5---555--5---555--5---555--5----|
A--------------------------------------|
E--------------------------------------|

  D
 pm____________________________________
e--------------------------------------|
B-------7--------7--------7--------7---|
G----77--7----77--7----77--7----77--7--|
D-777--7---777--7---777--7---777--7----|
A--------------------------------------|
E--------------------------------------|

Tabbed and submitted by Josh Rea (jjrea80@yahoo.com)
If I get enough comments(good ones), I'll start to do more on what I know is wrong on a 
of these tabs.  And yes, I know the rest of this song, but it will take a while, so keep tabbing!
Tap to rate this tab
# A B C D E F G H I J K L M N O P Q R S T U V W X Y Z