Song name
# A B C D E F G H I J K L M N O P Q R S T U V W X Y Z

Nofx - Talking Bout Yo Moma tab

NOFX - Talkin' Bout Yo Moma
From The Album : Surfer &  45 Or 46 Songs That Weren't Good Enough To Go On Our Other Records
.....Standard Tuning.....
Tabbed By: Tyler Freear (SumFX) Do Not Copy!!

Very Short Funny Song - 0.32 to be exact. But It Is Awesome.
(Note: This Song Is Very Fast! Not Recommended For Absolute Beginners!!!)
....Intro.....
-----------------------------|
-----------------------------|     x4
-----------------------------|
-----------------------------|
--7-7--5-5--7-7--3-3---------|
--5-5--3-3--5-5--1-1---------|
....Chorus....
-------------------------|------------------|
-------------------------|------------------|
-------------------------|------------------|     x4
-----------------10-10---|------------------|
--7-7--5-5--7-7--8--8----|--7-7--5--7-7-7-7-|
--5-5--3-3--5-5----------|--5-5--3--5-5-5-5-|
                                      * * *

....Verse....
-------------------------------------------|
-------------------------------------------|
-------------------------------------------|
-------------------------------------------|
--7-7-7-7--7-7-7-7--7-7-7-7--7-7-7-7-------|
--5-5-5-5--5-5-5-5--5-5-5-5--5-5-5-5-------|

-----------------------------------------------------|
-----------------------------------------------------|
-----------------------------------------------------|
--10-10-10-10--10-10-10-10---------------------------|
--8--8--8--8---8--8--8--8--10-10-10-10--10-10-10-10--|
---------------------------8--8--8--8---7--7--7--7---|

Then Chorus x4


 (Note: On fouth time of last chorus the last chord is phrased differently

 & on the last chorus it palm mutes some of the chords: (Listen To Song) )
  if you don't understand please contact me.
  Rate & Comment Please..


Thats It!!! Very short, fast song. Watch Out For The Fast Palm Mutes On The Chorus, 
to the song and you will get it. :)
Tap to rate this tab
 
# A B C D E F G H I J K L M N O P Q R S T U V W X Y Z