Song name
# A B C D E F G H I J K L M N O P Q R S T U V W X Y Z

Nofx - My Names Bud tab

Song - My Name's Bud
Band - NOFX
Album - Surfer & Bottles To The Ground
Tabbed By - Tyler Freear (SumFX)
Really Awesome, Short Song - 0.55

Intro
|---------------------|--------------------|
|---------------------|--------------------|
|---------------------|--------------------|
|-----------9-9--10-10|-5-5-5-5--7-7--9-9--|
|--7-7-7-7--7-7--8--8-|-3-3-3-3--5-5--7-7--|
|--5-5-5-5------------|--------------------|

Verse
|---------------------|--------------------|
|---------------------|--------------------|
|---------------------|--------------------|
|-----------9-9--10-10|-5-5-5-5--7-7--7-7--|
|--7-7-7-7--7-7--8--8-|-3-3-3-3--5-5--5-5--|
|--5-5-5-5------------|--------------------|

Chorus
|--5--5--5--5-|-5--5--5--5-|-------------|-------------|
|--5--5--5--5-|-5--5--5--5-|-10-10-10-10-|-10-10-10-10-|
|--6--6--6--6-|-6--6--6--6-|-10-10-10-10-|-10-10-10-10-|
|--7--7--7--7-|-7--7--7--7-|-10-10-10-10-|-10-10-10-10-|
|--7--7--7--7-|-7--7--7--7-|-8--8--8--8--|-8--8--8--8--|
|--5--5--5--5-|-5--5--5--5-|-------------|-------------|

|-8--8--8--8--|-8--8--8--8-|-------------|-------------|
|-8--8--8--8--|-8--8--8--8-|-12-12-12-12-|-12-12-12-12-|
|-9--9--9--9--|-9--9--9--9-|-12-12-12-12-|-12-12-12-12-|
|-10-10-10-10-|-10-10-10-10|-12-12-12-12-|-12-12-12-12-|
|-10-10-10-10-|-10-10-10-10|-10-10-10-10-|-10-10-10-10-|
|-8--8--8--8--|-8--8--8--8-|-------------|-------------|

...Structure...
.Intro x4        Short, Simple Song.
.Verse x4        Rate And Comment Please!
.Intro x2
.Verse x4
.Chorusx1
.Intro x2
Tap to rate this tab
# A B C D E F G H I J K L M N O P Q R S T U V W X Y Z