Song name
# A B C D E F G H I J K L M N O P Q R S T U V W X Y Z

Nofx - Fuck The Kids tab

Songs - Fuck The Kids (Revisited)
Band - NOFX
Album - Fuck The Kids E.P
Tabbed By - Tyler Freear (SumFX)
Very Easy Short Song - 0.34 (Revisited)
                    
Main Riff            
|--------------------------|
|--------------------------|
|--7-----------------9-----|
|--7--------7--------9-----|
|--5--------7--------7-----|
|-----------5--------------|

1st Lead Lick
|---------------------------------|
|------------12--15--12--15b-(17)-|
|--14b-(16)-----------------------|
|---------------------------------|
|---------------------------------|
|---------------------------------|

2nd Lead Lick (Listen Closely To Song)
|-----------|
|-----------|
|--13-------|
|------14---|
|-----------|
|-----------|

End Riff (The Only Riff For Fuck The Kids I & II)
|-----------------------|
|-----------------------|
|--7-7-7---------9-9-9--|
|--7-7-7--7-7-7--9-9-9--|
|--5-5-5--7-7-7--7-7-7--|
|---------5-5-5---------|

Awesome Song And Easy To Play.

...Structure...   Funny Thing Is - Fuck The Kids I & II
.Main Riff x2     Only Use End Riff x1 For The Whole Song!
.1st Lead Lick
.Main Riff x1
.2nd Lead Lick
.Main Riff x1
.End Riff  x1
Tap to rate this tab
# A B C D E F G H I J K L M N O P Q R S T U V W X Y Z