Song name
# A B C D E F G H I J K L M N O P Q R S T U V W X Y Z

Nofx - Happy Guy tab

-------------------------------------------------------------------------------
			     Happy Guy - NOFX
-------------------------------------------------------------------------------
Tabbed by: Juan "skeet skeet" Galvan
Email: dontbeadouche@yahoo.com

Tuning:standard

Its mostly the rythme I'm tabing but some on the lead I guess
Intro-play 1x then
e|-------------------------------------------------------------------|
B|-------------------------------------------------------------------|
G|--5---------------555555-------------------------------------------|
D|--5---2---3---6---555555--222222---333333---666666-----------------|
A|--3---2---3---6---333333--222222---333333---666666-----------------|
E|------0---1---4-----------000000---111111---444444-----------------|

2nd part of intro play 2x
e|-------------------------------------------------------------------------|
B|-------------------------------------------------------------------------|
G|--555555---444444------------555555--------------------------------------|
D|--------------------777777-----------------------------------------------|
A|--333333---222222------------333333--------------------------------------|
E|--------------------555555-----------------------------------------------|

verse
e|-------------------------------------------------------------------------|
B|-------------------------------------------------------------------------|
G|--555555---444444------------555555---555555---444444--------------------|
D|--------------------777777-----------------------------77--55--333333----|
A|--333333---222222------------333333---333333---222222--77--55--333333----|
E|--------------------555555-----------------------------55--33--111111----|

e|-------------------------------------------------------------------------|
B|-------------------------------------------------------------------------|
G|--555555---121212121212---777777---101010101010---555555---555555--------|
D|--555555---121212121212---777777---101010101010---555555---555555--------|
A|--333333---101010101010---555555---8-8-8-8-8-8----333333---222222--------|
E|-------------------------------------------------------------------------|

e|-------------------------|
B|-------------------------|      
G--------------------------|      
D|--77---55---333333-------|     
A|--77---55---333333-------|
E|--55---33---111111-------|

e|-------------------------------------------------------------------------|
B|-------------------------------------------------------------------------|
G|--555555------------333333------------333333---------------------555555--|
D|--555555---555555---333333---333333---333333---333333---33--55---555555--|
A|--333333---555555---111111---333333---111111---333333---33--55---333333--|
E|-----------333333------------111111------------111111---11--33-----------|

repeat 2nd part of intro and verse
this is part before solo "and he knows what people think..." play 2x
e|-------------------------------------------------------------------------|
B|-------------------------------------------------------------------------|
G|--------------------555555-----------------------------------------------|
D|--777777---333333---555555---555555---777777---888888---33333333---------|
A|--777777---333333---333333---555555---777777---888888---33333333---------|
E|--555555---111111------------333333---555555---666666---11111111---------|
                                                          ******** palm mute
sole
e|13-12----12--13-12----12--13-12---------------12-15-13-12-13-12-13-12----|
B|------13-----------13------------15--12/13/15-------------------------13-|
G|-------------------------------------------------------------------------|
D|-------------------------------------------------------------------------|
A|-------------------------------------------------------------------------|
E|-------------------------------------------------------------------------|

e|-12-12-------------------------------------------------------------------|
B|-------15----------------------------------------------------------------|
G|----------10-9-9-12-9-9-10-9---------------------------------------------|
D|-----------------------------10------------------------------------------|
A|-------------------------------------------------------------------------|
E|-------------------------------------------------------------------------|
Outo I assume
e|-------------------------------------------------------------------------|
B|-------------------------------------------------------------------------|
G|-555555555555--777777777777--999999999999--777777777777------------------|
D|-555555555555------------------------------------------------------------|
A|-333333333333--555555555555--777777777777--555555555555------------------|
E|-------------------------------------------------------------------------|


e|-------------------------------------------------------------------------|
B|-------------------------------------------------------------------------|
G|-101010101010101010101010--131313131313131313131313----5-----------------|
D|-------------------------------------------------------5-----------------|
A|-8-8-8-8-8-8-8-8-8-8-8-8---111111111111111111111111----3-----------------|
E|-------------------------------------------------------------------------|
          13                  1 3 
note that -  is just that not -,-
          11                  1 1

thats it i know how many times you strum maybe wrong but its a start
for whoever...alrato(spanish for later)
Tap to rate this tab
# A B C D E F G H I J K L M N O P Q R S T U V W X Y Z