Song name
# A B C D E F G H I J K L M N O P Q R S T U V W X Y Z

Nofx - Shes Gone tab

NOFX - She's Gone - Solo
By: Kevin Mawn (October 2009)
Video: McMawnster on Youtube.com
One of the first solos I ever wanted to learn!

1m57s (El Hefe)
             p.h.
e---------------------------------------------------------------------|
B-------------------------------------13------------------------------|
G-------9-10-12v--9/10-12-12b14---b14-----14r12p10----10-10-----------|
D-7-/12--------------------------------------------12-------12-10-12v-|
A---------------------------------------------------------------------|
E---------------------------------------------------------------------|
% 4  4  1 2  4    1 1  3  3        3  5      3  1  3  1  1 3   1  3   % Finger

e----------------------------------------------------------|
B-10-11----------------------------10-11-------------------|
G-------12-14-10-12----10----10-12-------12-14-12-10-12b14-|
D-------------------14----12-------------------------------|
A----------------------------------------------------------|
E----------------------------------------------------------|
% 1  2  3  4  1  3  4  1  3  1  3  1  2  3  4  3  1  3     % Finger

 sweep    sweep
e-10-------10----------------------------------------------|
B----13p10----13p10---13b15---r13p10----13b15v-------------|
G----------------------------------------------------------|
D----------------------------------------------------------|
A----------------------------------------------------------|
E----------------------------------------------------------|
% 1  4  1  1  4  1   4         4  1    4                   % Finger

Fingers:
	1 = Index
	2 = Middle
	3 = Ring
	4 = Pinky
Tap to rate this tab
# A B C D E F G H I J K L M N O P Q R S T U V W X Y Z