Song name
# A B C D E F G H I J K L M N O P Q R S T U V W X Y Z

Nofx - Cokie The Clown tab

                     Cokie the Clown - NOFX        


Tabbed by:Juan-neato
Email:myspace.com/one_crazy_bean
Tuning:standard

This song is off the EP Cokie the Clown....really good stuff
e|-------------------------------------------------------------------------|
B|------------------*repeat 4x----11*-11*-11*-11*----*strum 4x each--------|
G|--------------------------------10--9---7---9----------------------------|
D|--3-3-3-3---2-2-2-2-------------8---8---8---8----------------------------|
A|--3-3-3-3---2-2-2-2------------------------------------------------------|
E|--1-1-1-1---0-0-0-0------------------------------------------------------|

e|-------------------------------------------------------------------------|
B|------------------*repeat 2x----11*-11*-11*-11*----*strum 4x each--------|
G|--------------------------------10--9---7---9----------------------------|
D|--3-3-3-3---2-2-2-2-------------8---8---8---8----------------------------|
A|--3-3-3-3---2-2-2-2------------------------------------------------------|
E|--1-1-1-1---0-0-0-0------------------------------------------------------|


e|-------------------------------------------------------------------------|
B|------------------*repeat 2x---------------------------------------------|
G|-------------------------------------------------------------------------|
D|-3-3-3-3--2-2-2-2--------------------------------------------------------|
A|-3-3-3-3--2-2-2-2--------------------------------------------------------|
E|-1-1-1-1--0-0-0-0--------------------------------------------------------|

e|-------------------------------------------------------------------------|
B|------------------*strum 8x each-----------------------------------------|
G|--------------7*---------------------play this---------------------------|
D|--8*--2*--7*--7----------------------part 2x-----------------------------|
A|--8---3---7---5----------------------------------------------------------|
E|--6---1---5--------------------------------------------------------------|

e|-------------------------------------------------------------------------|
B|-------------------------*strum 8x each----------------------------------|
G|------5*------7*---------------------------------------------------------|
D|--8*--5---3*--7---8*--5*-------------------------------------------------|
A|--8---3---3---5---8---5--------------------------------------------------|
E|--6-------1-------6---3---------------------pick slide-------------------|

reapeat this whole thing again and its the song!!
there's a lil solo thing but i'm too lazy to figure it out.
I know this is sloppy but it pretty simple and easy if you
listen to the song...if you haven't heard/boutght/stolen
this EP get it!!!!!!!!!!
Tap to rate this tab
# A B C D E F G H I J K L M N O P Q R S T U V W X Y Z