Song name
# A B C D E F G H I J K L M N O P Q R S T U V W X Y Z

Nofx - Straight Outta Massachusetts tab

Artist:NoFX
Album: Cokie the clown (EP)
Year:2009
Song: Straight Outta Massachusetts


Verse: I moved from Massachusetts...

(Palm Muted)
E|----------------------------------------------------|
B|----------------------------------------------------|
G|--------------------------1010101010----------------|
D|-1010101010-----88888-----1010101010-----1010101010-|
A|-1010101010-----88888-----8-8-8-8-8------1010101010-|
E|-8-8-8-8-8------66666--------------------8-8-8-8-8--|


E|----------------------------------------------------|
B|----------------------------------------------------|
G|--------------------------1010101010-----1212121212-|
D|-1010101010-----88888-----1010101010-----1212121212-|
A|-1010101010-----88888-----8-8-8-8-8------1010101010-|
E|-8-8-8-8-8------66666-------------------------------|

E|----------------------------------------------------|
B|----------------------------------------------------|
G|-------------------------------------1010101010-----|
D|-1010101010-----88888----------------1010101010-----|
A|-1010101010-----88888-----88888------8-8-8-8-8------|
E|-8-8-8-8-8------66666-----55555---------------------|

E|----------------------------------------------------|
B|--------------------------------------LOUD!!Palm End|
G|-------------------------1010101010-----1010101010--|
D|-1010101010-----88888----1010101010-----1010101010--|
A|-1010101010-----88888----8-8-8-8-8------8-8-8-8-8---|
E|-8-8-8-8-8------66666-------------------------------|

Chorus:

E|--------------------------|
E|--------------------------|
E|---------------1010101010-|    2x
E|-1010101010----1010101010-|
E|-1010101010----8-8-8-8-8--|
E|-8-8-8-8-8----------------|

Verse(same as the first): I moved to California...

Chorus:

E|--------------------------|            E|------------------------|
B|--------------------------|            E|------------------------|
G|---------------1010101010-|    2x then E|--77777-7-9-10101010----|
D|-1010101010----1010101010-|            E|--77777-7-9-10101010----|
A|-1010101010----8-8-8-8-8--|            E|--55555-5-7-8-8-8-8-----|
E|-8-8-8-8-8----------------|            E|------------------------|

Verse: Without Palm Muting

Ending:

E|--------------------------|
B|--------------------------|
G|---------10---------------|
D|--10--8--10----10101010---|
A|--10--8--8-----10101010---|
E|--8---6--------8-8-8-8----|

Have Fun!

Tabbed by Chris Seres
seri@citromail.hu
Tap to rate this tab
# A B C D E F G H I J K L M N O P Q R S T U V W X Y Z