Song name
# A B C D E F G H I J K L M N O P Q R S T U V W X Y Z

Nofx - Cokie The Clown chords

So yeah this is the new self titled Nofx song off the EP "Cokie The Clown." 
This is an awesome song so I hope you enjoy learning it! 
Check out the video for this song if you haven't already!

Song Key:
x = Mute String
h = Hammer On
p = Pull Off
~ = Let Ring

The strumming isn't exact but you can figure it out the chords are there :P


Intro:

e|-------------------------------|
B|-------------------------------|
G|-------------------------------|
D|-3-3-3-3-3-3-3-3-3-3-3-3--(x4)-|
A|-3-3-3-3-3-3-3-3-3-3-3-3-------|
E|-1-1-1-1-1-1-0-0-0-0-0-0-------|

e|-------------------------------------------------|
B|-------------------------------------------------|
G|-15-15-15-15-15-15-15-15-15-15-15-15-15-15-15-15-|
D|-15-15-15-15-14-14-14-14-12-12-12-12-14-14-14-14-|
A|-13-13-13-13-13-13-13-13-13-13-13-13-13-13-13-13-|
E|-------------------------------------------------|

Verse 1:

e|-------------------------------|
B|-------------------------------|
G|-------------------------------|
D|-3-3-3-3-3-3-3-3-3-3-3-3--(x2)-|
A|-3-3-3-3-3-3-3-3-3-3-3-3-------|
E|-1-1-1-1-1-1-0-0-0-0-0-0-------|

e|-------------------------------------------------|
B|-------------------------------------------------|
G|-15-15-15-15-15-15-15-15-15-15-15-15-15-15-15-15-|
D|-15-15-15-15-14-14-14-14-12-12-12-12-14-14-14-14-|
A|-13-13-13-13-13-13-13-13-13-13-13-13-13-13-13-13-|
E|-------------------------------------------------|

e|-------------------------------|
B|-------------------------------|
G|-------------------------------|
D|-3-3-3-3-3-3-3-3-3-3-3-3--(x2)-|
A|-3-3-3-3-3-3-3-3-3-3-3-3-------|
E|-1-1-1-1-1-1-0-0-0-0-0-0-------|

Chorus:

e|-----------------------------------------------------------------|
B|-----------------------------------------------------------------|
G|-------------------------------------------------7-7-7-7-7-7-7-7-|
D|-8-8-8-8-8-8-8-8-3-3-3-3-3-3-3-3-7-7-7-7-7-7-7-7-7-7-7-7-7-7-7-7-|x2
A|-8-8-8-8-8-8-8-8-3-3-3-3-3-3-3-3-7-7-7-7-7-7-7-7-5-5-5-5-5-5-5-5-|
E|-6-6-6-6-6-6-6-6-1-1-1-1-1-1-1-1-5-5-5-5-5-5-5-5-----------------|

e|-----------------------------------------------------------------|
B|-----------------------------------------------------------------|
G|-----------------5-5-5-5-5-5-5-5-----------------7-7-7-7-7-7-7-7-|
D|-8-8-8-8-8-8-8-8-5-5-5-5-5-5-5-5-3-3-3-3-3-3-3-3-7-7-7-7-7-7-7-7-|
A|-8-8-8-8-8-8-8-8-3-3-3-3-3-3-3-3-3-3-3-3-3-3-3-3-5-5-5-5-5-5-5-5-|
E|-6-6-6-6-6-6-6-6-----------------1-1-1-1-1-1-1-1-----------------|

e|----------------------------------------------|
B|----------------------------------------------|
G|----------------------------------------------|
D|-8-8-8-8-8-8-8-8-5-5-5-5-5-5-5-5--------------|
A|-8-8-8-8-8-8-8-8-5-5-5-5-5-5-5-5--------------|
E|-6-6-6-6-6-6-6-6-3-3-3-3-3-3-3-3-pick-slide>>-|

Post Chorus:

e|-------------------------------|
B|-------------------------------|
G|-------------------------------|
D|-3-3-3-3-3-3-3-3-3-3-3-3--(x2)-|
A|-3-3-3-3-3-3-3-3-3-3-3-3-------|
E|-1-1-1-1-1-1-0-0-0-0-0-0-------|

e|-------------------------------------------------|
B|-------------------------------------------------|
G|-15-15-15-15-15-15-15-15-15-15-15-15-15-15-15-15-|
D|-15-15-15-15-14-14-14-14-12-12-12-12-14-14-14-14-|
A|-13-13-13-13-13-13-13-13-13-13-13-13-13-13-13-13-|
E|-------------------------------------------------|

Verse 2:

e|-------------------------------|
B|-------------------------------|
G|-------------------------------|
D|-3-3-3-3-3-3-3-3-3-3-3-3--(x2)-|
A|-3-3-3-3-3-3-3-3-3-3-3-3-------|
E|-1-1-1-1-1-1-0-0-0-0-0-0-------|

e|-------------------------------------------------|
B|-------------------------------------------------|
G|-15-15-15-15-15-15-15-15-15-15-15-15-15-15-15-15-|
D|-15-15-15-15-14-14-14-14-12-12-12-12-14-14-14-14-|
A|-13-13-13-13-13-13-13-13-13-13-13-13-13-13-13-13-|
E|-------------------------------------------------|

e|-------------------------------|
B|-------------------------------|
G|-------------------------------|
D|-3-3-3-3-3-3-3-3-3-3-3-3--(x2)-|
A|-3-3-3-3-3-3-3-3-3-3-3-3-------|
E|-1-1-1-1-1-1-0-0-0-0-0-0-------|

Chorus 2:

Guitar 1

e|-----------------------------------------------------------------|
B|-----------------------------------------------------------------|
G|-------------------------------------------------7-7-7-7-7-7-7-7-|
D|-8-8-8-8-8-8-8-8-3-3-3-3-3-3-3-3-7-7-7-7-7-7-7-7-7-7-7-7-7-7-7-7-|x2
A|-8-8-8-8-8-8-8-8-3-3-3-3-3-3-3-3-7-7-7-7-7-7-7-7-5-5-5-5-5-5-5-5-|
E|-6-6-6-6-6-6-6-6-1-1-1-1-1-1-1-1-5-5-5-5-5-5-5-5-----------------|

e|-----------------------------------------------------------------|
B|-----------------------------------------------------------------|
G|-----------------5-5-5-5-5-5-5-5-----------------7-7-7-7-7-7-7-7-|
D|-8-8-8-8-8-8-8-8-5-5-5-5-5-5-5-5-3-3-3-3-3-3-3-3-7-7-7-7-7-7-7-7-|
A|-8-8-8-8-8-8-8-8-3-3-3-3-3-3-3-3-3-3-3-3-3-3-3-3-5-5-5-5-5-5-5-5-|
E|-6-6-6-6-6-6-6-6-----------------1-1-1-1-1-1-1-1-----------------|

e|----------------------------------------------|
B|----------------------------------------------|
G|----------------------------------------------|
D|-8-8-8-8-8-8-8-8-5-5-5-5-5-5-5-5--------------|
A|-8-8-8-8-8-8-8-8-5-5-5-5-5-5-5-5--------------|
E|-6-6-6-6-6-6-6-6-3-3-3-3-3-3-3-3-pick-slide>>-|

Guitar 2 

Clean Tone
e|------------------------------------------|
B|------------------------------------------|
G|------------------------------------------|
D|---7-8-10---7-8-10---7-8-10-7~-7h8p7-5----|
A|-8~-------8~-------7~------------------8~-|
E|------------------------------------------|

e|----------------------------------------|
B|----------------------------------------|
G|----------------------------------------|
D|-7-8-10---7-8-10---7-8-10-7~-7h8p7-5----|
A|--------8~-------7~------------------8~-|
E|----------------------------------------|


Distortion
e|--------------------------------------------------------------|
B|--------------------------------------------------------------|
G|--------------------------------------------------------------|
D|-7-8-10-5~-7-8-10-7~-7-8-10-7~-7-8-10---7h8p7-3-5~-7h8p7-5----|
A|--------------------------------------8~-------------------8~-|
E|--------------------------------------------------------------|

Outro:

Guitar 1
e|----------------------------------|
B|----------------------------------|
G|----------------------------------|
D|-3-3-3-3-3-3-3-3-3-3-3-3--(x3)-3~-|
A|-3-3-3-3-3-3-3-3-3-3-3-3-------3~-|
E|-1-1-1-1-1-1-0-0-0-0-0-0-------1~-|

Guitar 2

e|-----------------------------------------------|
B|-----------------------------------------------|
G|-10-10-10-10-10-10-14-14-14-14-14-14-------10~-|
D|--x--x--x--x--x--x--x--x--x--x--x--x--(x3)--x~-|
A|--8--8--8--8--8--8-12-12-12-12-12-12--------8~-|
E|-----------------------------------------------|

Pick Slide at the end.

That's it!

Please Rate!
Leave comments and concerns and I'll be sure to answer.
Tap to rate this tab
 
# A B C D E F G H I J K L M N O P Q R S T U V W X Y Z