Song name
# A B C D E F G H I J K L M N O P Q R S T U V W X Y Z

Nofx - The Quitter tab

----------------------------------------------------------------
                  Band - NOFX
                  Song - The Quitter
                  Album - Coaster
                  Tabbed By - SumFX
-----------------------------------------------------------------
The Other Version On Here Didn't Sound Too Good So I Thought I Would
Have A Go At Tabbing It. Sounds Good Too Me, Let Me Know What You Think!

Intro Part 1
|------------|
|------------|
|--10-10--9--|
|--10-10--9--|
|--8--8---7--|
|------------|

Intro Part 2 (Figure Out Stumming, It's Not Hard)
|---------------------------|---------------------------|
|---------------------------|---------------------------|
|-9--12--14--16--14--12--14-|-9--12--14--16--14--12--9--|
|-x---x--x---x---x---x---x--|-x--x---x---x---x---x---x--|
|-7--10--12--14--12--10--12-|-7--10--12--14--12--10--7--|
|---------------------------|---------------------------|


Verse
|------------------------|
|------------------------|
|--------------------55--|
|--9999-9999-7777-55-33--|
|--7777-5555-4444-33-----|
|------------------------|

Chorus
|-----------------------|-----------------------|
|-----------------------|-----------------------|
|-----------------------|-------------------55--|
|--9999------7777-------|-9999-7777------55-33--|
|--7777-5555-5555-7777--|-7777-5555-7777-33-----|
|-------3333------5555--|-----------5555--------|
Bridge
|--------------|-------|
|--------------|-------|
|--------------|--555--|
|--2--Talking--|--555--|
|--2-----------|--333--|
|--0-----------|-------|

..Structure...
.Intro Part 1.
.Intro Part 2.
.Verse       .
.Chorus      .
.Intro Part 2.
.Verse       .
.Chorus      .
.Bridge      .
.Chorus      .
.Intro Part 2.
..............

Tap to rate this tab
 
# A B C D E F G H I J K L M N O P Q R S T U V W X Y Z