Song name
# A B C D E F G H I J K L M N O P Q R S T U V W X Y Z

Nofx - Usa-holes tab

-----------------------------------------------------------------------------
			     USA-Holes - NOFX
-----------------------------------------------------------------------------
Tabbed by: Balloonitic
Email: daviiiden@hotmail.com

Tuning: Standard


Intro
e|-------------------------------------------------------------------------|
B|-------------------------------------------------------------------------|
G|-------------------------------------------------------------------------|
D|--------7--9----------7--999--------------4--5--4------------------------|
A|--5--7--5--7----5--7--5--777--9-10--5--7--2--3--2--7--5--2---------------|
E|--3--5----------3--5----------7-8---3--5-----------5--3--0---------------|


e|-------------------------------------------------------------------------|
B|-------------------------------------------------------------------------|
G|-------------------------------------------------------------------------|
D|--------7--999-----------------12-14-12-9----------7--999----------------|
A|--5--7--5--777--9-10--5-7-5-2--10-12-10-7----5--7--5--777--9-10----------|
E|--3--5----------7-8---3-5-3-0----------------3--5----------7-8-----------|


e|-------------------------------------------------------------------------|
B|-------------------------------------------------------------------------|
G|-------------------------------------------------------------------------|
D|--------4--5--3-------------------7--999------------------9--------------|
A|--5--7--2--3--2--7--5--2----5--7--5--777--9--10--5--7--5--7--------------|
E|--3--5-----------5--3--0----3--5----------7--8---3--5--3-----------------|

Verse, 1
e|-------------------------------------------------------------------------|
B|-------------------------------------------------------------------------|
G|-------------------------------------------------------------------------|
D|--------4--55555555555--77777777777--------------------------------------|
A|--5--7--2--33333333333--55555555555--5555555555555555555555--------------|
E|--3--5-------------------------------3333332233333333333333--------------|

e|-------------------------------------------------------------------------|
B|----------------------------88-x8x8--------------------------------------|
G|----------------------------99-x9x9--------------------------------------|
D|--55555555555--77777777777--99-x9x9-x3-----------------------------------|
A|--33333333333--55555555555--77-x7x7--------------------------------------|
E|-------------------------------------------------------------------------|


e|-------------------------------------------------------------------------|
B|-------------------------------------------------------------------------|
G|-------------------------------------------------------------------------|
D|----------555555----------555555----------7--9----12--11--10--9----------|
A|--555555--333333--777777--333333----5--7--5--7----10--9---8---7----------|
E|--333333----------555555------------3--5---------------------------------|

Verse, 2
e|-------------------------------------------------------------------------|
B|-------------------------------------------------------------------------|
G|-------------------------------------------------------------------------|
D|--------4--55555555555--77777777777--------------------------------------|
A|--5--7--2--33333333333--55555555555--555555555555555555555---------------|
E|--3--5-------------------------------333333223333333333333---------------|


e|-------------------------------------------------------------------------|
B|----------------------------88-x8x8--------------------------------------|
G|----------------------------99-x9x9--------------------------------------|
D|--55555555555--77777777777--99-x9x9-x3-----------------------------------|
A|--33333333333--55555555555--77-x7x7--------------------------------------|
E|-------------------------------------------------------------------------|


e|-------------------------------------------------------------------------|
B|-------------------------------------------------------------------------|
G|-------------------------------------------------------------------------|
D|----------555555----------555555-----------------------------------------|
A|--555555--333333--777777--333333-----------------------------------------|
E|--333333----------555555-------------------------------------------------|

Solo, second guitar (not lead)
e|-------------------------------------------------------------------------|
B|-------------------------------------------------------------------------|
G|-------------------------------------------------------------------------|
D|--------7--999--7--9--------4--555--4--5-----4--5--777--9--7-------------|
A|--5--7--5--777--5--7--5--7--2--333--2--3--7--2--3--555--7--5-------------|
E|--3--5----------------3--5----------------5------------------------------|


e|-------------------------------------------------------------------------|
B|-------------------------------------------------------------------------|
G|-------------------------------------------------------------------------|
D|-----4--5--444--5--4--12--14--12--999--7--9--------4--555--4--5----------|
A|--7--2--3--222--3--2--10--12--10--777--5--7--5--7--2--333--2--3----------|
E|--5------------------------------------------3--5------------------------|


e|-------------------------------------------------------------------------|
B|-------------------------------------------------------------------------|
G|-------------------------------------------------------------------------|
D|-----4--5--777--9--7-----4--5--444--5--4--12--14--12---------------------|
A|--7--2--3--555--7--5--7--2--3--222--3--2--10--12--10---------------------|
E|--5-------------------5--------------------------------------------------|

verse, 3
e|-------------------------------------------------------------------------|
B|-------------------------------------------------------------------------|
G|-------------------------------------------------------------------------|
D|---99999999999--55555555555--77777777777---------------------------------|
A|---77777777777--33333333333--55555555555--55555555555-x2-----------------|
E|------------------------------------------33333333322--------------------|

e|-------------------------------------------------------------------------|
B|-------------------------------------------------------------------------|
G|-------------------------------------------------------------------------|
D|---99999999999--55555555555--77777777777---------------------------------|
A|---77777777777--33333333333--55555555555--55555555555-x2-----------------|
E|------------------------------------------33333222222--------------------|

Outro
e|-------------------------------------------------------------------------|
B|-------------------------------------------------------------------------|
G|-------------------------------------------------------------------------|
D|--------7--999--------------4--5--4--------------------------------------|
A|--5--7--5--777--9-10--5--7--2--3--2--7--5--2-----------------------------|
E|--3--5----------7-8---3--5-----------5--3--0-----------------------------|

e|-------------------------------------------------------------------------|
B|-------------------------------------------------------------------------|
G|-------------------------------------------------------------------------|
D|--------7--999-----------------------------------------------------------|
A|--5--7--5--777--9-10--5-7-5-2--------------------------------------------|
E|--3--5----------7-8---3-5-3-0--------------------------------------------|


I'm so tired of all you lazy-asses who really can't write tabs correctly!
I'd wrote This tab so that you can enjoy reading a 100% correct tab for once. And sorry 
the solo (lead guitarr), but I'm working on that. As soon as I get the solo right, I'll 
it in here so stay tuned:)

(BTW this is my first tab ever written) Enjoy
Tap to rate this tab
 
# A B C D E F G H I J K L M N O P Q R S T U V W X Y Z