Song name
# A B C D E F G H I J K L M N O P Q R S T U V W X Y Z

Nofx - Co Dependence Day tab

Codependence Day
Nofx
Cokie the Clown EP

2/11/10
Kyle Dixon

Intro

Rhythm should be easy to figure out.

x2
E|-----------------|-----------------|
B|-----------------|-----------------|
G|-----------12----|--------12--10---|
D|-10-9-7-5--12----|-10-9-7-12--10---|
A|-10-9-7-5--10----|-10-9-7-10--8----|
E|-8--7-5-3--------|-8--7-5----------|

E|-----------------|-----------------| Second time ends
B|-----------------|-----------------| on the G5.
G|--------12--10---|-----------------|
D|-10-9-7-12--10---|-10-9-7-5--7-----|
A|-10-9-7-10--8----|-10-9-7-5--7-----|
E|-8--7-5----------|-8--7-5-3--5-----| 

Verse

Play fast.

x2
E|----------------|--------------| Play these
B|----------------|--------------| two measures
G|----------------|----------5-2-| three times.
D|----------------|----------5-2-| 
A|0-0-0-0-0-0-0-0-|----------3-0-|
E|----------------|1-1-1-1-1-----|
pm|------------------------|

E|----------| Don't play
B|----------| this measure
G|----------| on the second
D|-10-9-7-5-| time.
A|-10-9-7-5-|             
E|-8--7-5-3-|             

Play Intro and Verse again.

Bridge


E|--------------------|
B|--------------------|
G|--7-10--17--13--12--|
D|5-7-----------------|
A|5-5-8---15--11--10--|
E|3-------------------|
              Guitar Two pickslides here.

Guitar One

E|---------------------|
B|---------------------|
G|2-----5--4--2--------|
D|2--3--5--5--2--3--5--|
A|0--3--3--2--0--3--3--|
E|---1-----------1--3--|

Guitar Two

Repeat this measure.

E|--------|
B|--------|
G|--------|
D|7-7-5-5-|
A|--------|
E|--------|
pm|-----|

Outro

E|-----------------|-----------------|
B|-----------------|-----------------|
G|-----------12----|--------12--10---|
D|-10-9-7-5--12----|-10-9-7-12--10---|
A|-10-9-7-5--10----|-10-9-7-10--8----|
E|-8--7-5-3--------|-8--7-5----------|

E|-----------------|-----------------|
B|-----------------|-----------------|
G|--------12--10---|-----------------|
D|-10-9-7-12--10---|-10-9-7-5--7-----|
A|-10-9-7-10--8----|-10-9-7-5--7-----|
E|-8--7-5----------|-8--7-5-3--5-----|

Done.
Tap to rate this tab
 
# A B C D E F G H I J K L M N O P Q R S T U V W X Y Z