Song name
# A B C D E F G H I J K L M N O P Q R S T U V W X Y Z

Nofx - Marxist Brothers tab

NOFX
Album: Wolves in Wolves' Clothing
Song: Marxist Brothers


First Verse:
e|-7-7-7-7--8--8--8--8--|
B|-8-8-8-8--8--8--8--8--|
G|-9-9-9-9--9--9--9--9--|
D|-9-9-9-9--10-10-10-10-|
A|----------------------|
E|----------------------|


First Chorus:
G                G7                 Em
 Iíll get this one, put it on my card,

                          C                     A
I get frequent flyer mileage, And a booklet of upgrades,

               D                        G                        Em
So next time I visit the third world, I wonít have to fly second class.

                 A       D7
The people's revolution  ------- is gonna be a podcast.


Second Verse:
e|-9--9--9--9--10-10-10-10-|
B|-10-10-10-10-10-10-10-10-|
G|-11-11-11-11-11-11-11-11-|
D|-11-11-11-11-12-12-12-12-|
A|-------------------------|
E|-------------------------|


Second Chorus:
A                      A7         Gbm             D
  Still Iím waiting to see, if my bid on eBay was enough

        Bm                  E                    A            Gbm
To get "Todayís Empires Are Tomorrowís Ashes" on soviet red vinyl

                   Bm                   E
Itís going on the wall next to "Tubthumper" and "The Battle Of Los Angeles".


Rhythm during Solo:
e|-------------------------|
B|-------------------------|
G|----7--------------------|
D|-4--7--------------------|
A|-4--5--------------------|
E|-2-----------------------|
   ^  ^ 16 strums each until the end

End:
e|-------------------------|
B|-------------------------|
G|-------------------------|
D|-------------------------|
A|-11-11-11--9--11--9------|
E|-9--9--9---7--9---7------|


Feedback: E_Town_Punk@hotmail.com
Tap to rate this tab
 
# A B C D E F G H I J K L M N O P Q R S T U V W X Y Z