Song name
# A B C D E F G H I J K L M N O P Q R S T U V W X Y Z

Nofx - Jamaicas Alright If You Like Homophobes tab

NoFX- Jamaicas Alright If You Like Homophobes

Bass-Intro
  /         x3          \   
G|--------------------------------------------|
D|----4---4-6-7----7-6-4------4----------4-6--|
A|--7---7--------7----------7---7-5--5-5------|
E|--------------------------------------------|
:
Chorus   *= x4   #= x2
E|-5*--2*--5*--2*--5*--2*--2#--4#--5*--|
B|-5---2---5---2---5---2---3---5---5---|
G|-6---2---6---2---6---2---2---4---6---|
D|-------------------------------------|
A|-------------------------------------|
E|-------------------------------------|
:
Trumpet-Part
#Guitar 1#
E|-5*--2*--2#--4#--5*--2#--4#--5*--|
B|-5---2---3---5---5---3---5---5---|
G|-6---2---2---4---6---2---4---6---|
D|---------------------------------|
A|---------------------------------|
E|---------------------------------|

#Guitar 2#
E|-------------|
B|-------------|
G|-------------|
D|--2244-2242--|
A|-------------|
E|-------------|

#Trumpet#
E|-------------------------------------------------------------------------|
B|-------------------------------------------------------------------------|
G|--------6-------6---------6-------6--------11-9---------------6----------|
D|--7-9-7---9-7-9-----7-9-7---9-7-9----7-9-7------11-9-7--7-9-7---9-7-9-7--|
A|-------------------------------------------------------------------------|
E|-------------------------------------------------------------------------|
:
Verse x4
E|-5*--2*--2*--4*--|
B|-5---2---3---5---|
G|-6---2---2---4---|
D|-----------------|
A|-----------------|
E|-----------------|
Then Trumpet-Part, Verse, Trumpet-Part

Solo

#Guitar 1#    x2,5
E|-7*--4*--5*--2*--|
B|-7---5---5---2---|
G|-7---4---6---2---|
D|-----------------|
A|-----------------|
E|-----------------|

#Guitar 2#
E|-----------------------------------------------------------------------------
B|-----------------------------------------------------------------------------
G|-------------------------------------------9-----------9---------------------
D|--------7-7-9-9---9b--10-9-7-9-7--------9b---9-9br-9b---9br---11-12-11-9-9b-
A|------7-----------------------------9----------------------------------------
E|--7-7------------------------------------------------------------------------

E|--------------9-------10-9-7----------------------|
B|-----------10----------------10-9-10--------------|
G|--------11---------------------------9------------|
D|--11-11---------11-11------------------12-11-9-7--|
A|--------------------------------------------------|
E|--------------------------------------------------|
Chorus (few times)
Tap to rate this tab
# A B C D E F G H I J K L M N O P Q R S T U V W X Y Z