Song name
# A B C D E F G H I J K L M N O P Q R S T U V W X Y Z

Nofx - Hardcore 84 tab

Nofx
Hardcore 84
sfc

INTRO
e-----------------------|-----------------------|
B-----------------------|-----------------------|
G-9-9-12-12-------12-12-|-9-9-12-12-------12-12-|
D-9-9-12-12-10-10-12-12-|-9-9-12-12-10-10-12-12-|
A-7-7-10-10-10-10-10-10-|-7-7-10-10-10-10-10-10-|
E-----------8--8--------|-----------8--8--------|


VERSE
e-----------------------|------------------------|
B-----------------------|------------------------|
G-9-9-12-12-------12-12-|-9-9-12-12-------12-12--|
D-9-9-12-12-10-10-12-12-|-9-9-12-12-12-12-12-12--|
A-7-7-10-10-10-10-10-10-|-7-7-10-10-12-12-10-10--|
E-----------8--8--------|-----------10-10--------|

e-----------------------|------------------------|
B-----------------------|------------------------|
G-9-9-12-12-------12-12-|-9-9-12-12--------------|
D-9-9-12-12-10-10-12-12-|-9-9-12-12-12-12--------|
A-7-7-10-10-10-10-10-10-|-7-7-10-10-12-12--------|
E-----------8--8--------|-----------10-10--------|

BREAK
e-----------------|-----------------|
B-----------------|-----------------|
G-9-9-9-9-8-8-8-8-|-8-8-8-8-7-7-7-7-|
D-9-9-9-9-8-8-8-8-|-8-8-8-8-7-7-7-7-|
A-7-7-7-7-6-6-6-6-|-6-6-6-6-5-5-5-5-|
E-----------------|-----------------|

e-----------------|-----------------|
B-----------------|-----------------|
G-9-9-9-9-8-8-8-8-|-8-8-8-8---------|
D-9-9-9-9-8-8-8-8-|-8-8-8-8---------|
A-7-7-7-7-6-6-6-6-|-6-6-6-6---------|
E-----------------|-----------------|


VERSE


RIOT! RIOT!
e---------------------------------------------------|
B---------------------------------------------------|
G-9-9-9-9-9-9-9-9----------------7-7-7--12-12-12/9~-|
D-9-9-9-9-9-9-9-9-7-7-7---5~-5-5-7-7-7--12-12-12/9~-|
A-7-7-7-7-7-7-7-7-7-7-7---5~-5-5-5-5-5--10-10-10/7~-|
E-----------------5-5-5---3~-3-3--------------------|     x4
pm...............

INTRO
VERSE
BREAK
VERSE


*pick slide*

e-----------------|-----------------|-------------------------|---------------------|
B-----------------|-----------------|-------------------------|---------------------|
G-----------------|-7-7-7-7-7-7-7-7-|-12-12-12-12-12-12-14-12-|-5-5-5-5-12-12-12-12-|
D-5-5-5-5-5-5-5-5-|-7-7-7-7-7-7-7-7-|-12-12-12-12-12-12-14-12-|-5-5-5-5-12-12-12-12-|
A-5-5-5-5-5-5-5-5-|-5-5-5-5-5-5-5-5-|-10-10-10-10-10-10-12-10-|-3-3-3-3-10-10-10-10-|
E-3-3-3-3-3-3-3-3-|-----------------|-------------------------|---------------------|

END
Tap to rate this tab
# A B C D E F G H I J K L M N O P Q R S T U V W X Y Z