Song name
# A B C D E F G H I J K L M N O P Q R S T U V W X Y Z

Nofx - Monosyllabic Girl tab

song:   Monosyllabic Girl
artist: Nofx
me:     Shimi

So yea this is a pretty awesome song by Know Eff Ecks. Simple, short and
not hard! (kinda like my weiner). 
                                                KEY
                                            .  ---> palm mute
                                            h  ---> hammer on
---intro                                    ~  ---> let ring
    C   G  F  G                           (.)(.) -> boobies!!!
e|----------------------|
B|----------------------|
G|----------------------|
D|------9--7---9---9--9-|
A|-10--10--8--10--10-10-|
E|--8-------------------|

the little riff that hefe does

e|------------------|
B|------------------|
G|-------5~---------|
D|-5-h-7----5-h-7---| (pick scrape)
A|---------------3~-|
E|------------------|

---verse

   C           E       A      F
e|--------------------------------------------------------------|
B|--------------------------------------------------------------|
G|--------------------------------------------------------------|
D|-------------9-9-9-9--------10-10-10-10-------9--7---9---9--9-|
A|-10-10-10-10-7-7-7-7-7-7-7-7-8--8--8--8--10--10--8--10--10-10-|
E|--8--8--8--8---------5-5-5-5--------------8-------------------|
pm  .  .  .  . . . . . . . . . .  .  .  .


---chorus
 
    C      A      F       G#
e|--------------------------------|
B|--------------------------------|
G|----------------10~-------------|
D|-10~-----7~-----10~-----6~------|
A|-10~-----7~------8~-----6~------|
E|--8~-----5~-------------4~------|

   C      E      F      G#     F      G
e|-------------------------------------------|
B|-------------------------------------------|
G|-5--5-5------------------------------------|
D|-5--5-5-2--2-2-3--3-3-6--6-6-3--3-3-5--5-5-|
A|-3--3-3-2--2-2-3--3-3-6--6-6-3--3-3-5--5-5-|
E|--------0--0-0-1--1-1-4--4-4-1--1-1-3--3-3-|


and then you do the intro once again
e|-------------|
B|-------------| but this time
G|-------5~----| the little riff
D|-5-h-7-------| is even little-er
A|-------------|
E|-------------|


and the verse
and the chorus!

---outro

   C
e|------------|                  |---------|
B|------------|  (   PAUSE    )  |---------|
G|-5-5555555--|  (    FOR     )  |-5-5-5-5-|
D|-5-5555555--|  (  DRAMATIC  )  |-5-5-5-5-|
A|-3-3333333--|  (   EFFECT!  )  |-3-3-3-3-|
E|------------|                  |---------|


and thats about it! pretty short and simple but awesum as fuck. enjoy!
and if you wanna give me naked pictures of yourself or sumthing send it to:
angelsracer182@hotmail.com!
Tap to rate this tab
 
# A B C D E F G H I J K L M N O P Q R S T U V W X Y Z