Song name
# A B C D E F G H I J K L M N O P Q R S T U V W X Y Z

Nofx - Three On Speed tab

NOFX

this is a great song off of the surfer 7"

e -------------------
B -------------------
G -------------------
D -55-5-33-3-33-3-33-   X 4
A -55-5-33-3-33-3-33-
E -33-3-11-1-11-1-11-

e -------------------
B -------------------
G ----------------55-
D -55-5-33-3-33-3-55-   X 4
A -55-5-33-3-33-3-33-
E -33-3-11-1-11-1----

e -------------------
B -------------------
G --------5----------
D -5-3-3--5----------   X 4
A -5-3-3--3----------
E -3-1-1-------------

e -------------------
B -------------------
G ----------------55-
D -55-5-33-3-33-3-55-   X 4
A -55-5-33-3-33-3-33-
E -33-3-11-1-11-1----
Tap to rate this tab
 
# A B C D E F G H I J K L M N O P Q R S T U V W X Y Z