Song name
# A B C D E F G H I J K L M N O P Q R S T U V W X Y Z

Nofx - Scavenger Type tab

This song is really easy to play and its a kiss ass song too!!! This is the correct way to play...i saw the guy with the fingering. ITS RIGHT!!!!!

Intro: 8x
|-2-|
|-3-|
|-2-|
|---|
|---|
|---|

each one play 4x

|-2---2---2---3---2---2---2---3-| "Gigin alone at the bottom of the hill-
|-3---2---3---3---3---2---3---3-|  Congregated in his hat"
|-2---3---4---0---2---3---4---0-|
|-------------------------------|
|-------------------------------|
|-------------------------------|

Last 2 chords only play twice..

|-2---0---0---3-|  
|-3---3---3---2-|
|-2---1---0---2-|
|---------2-----|
|---------------|
|---------------|

|-2---2---2---3---2---2---2---3---2|  "A crow, a scavenger type- 
|-3---2---3---3---3---2---3---3---3|   A Fifth of comfort"
|-2---3---4---0---2---3---4---0---2|
|----------------------------------|
|----------------------------------|
|----------------------------------|

|-0---0---3-|
|-3---3---2-|
|-1---0---2-|
|-----2-----|
|-----------|
|-----------|

|-2---2---2---3---2---2---2---3---2-| "As the wind penetrates his bone-
|-3---2---3---3---3---2---3---3---3-|  Catapulted from his horn wail like lovers"
|-2---3---4---0---2---3---4---0---2-|
|-----------------------------------|
|-----------------------------------|
|-----------------------------------|


|-0---0---3-|
|-3---3---2-|
|-1---0---2-|
|-----2-----|
|-----------|
|-----------|

|-2---2---2---3---2---2---2---3-| "The coins don't drop consistent-
|-3---2---3---3---3---2---3---3-|  No one did see him die"
|-2---3---4---0---2---3---4---0-|
|-------------------------------|
|-------------------------------|
|-------------------------------|





Tap to rate this tab
 
# A B C D E F G H I J K L M N O P Q R S T U V W X Y Z