Song name
# A B C D E F G H I J K L M N O P Q R S T U V W X Y Z

Nofx - Leave It Alone tab

Leave It Alone by NoFX
Tabbed By Locky G.
standard tuning...

Hopefully this works...
Here it goes, pretty sure its correct.

Intro

e------------------------------------------------|
B------------------------------------------------|
G------------------------------------------------| I will let you work
D------------------------------------------------| out how many times
A--888-77777-87-8-- x4   THEN END ON   3~--------| you strum everything
E--888-88888-66-6-------------------   1~--------|

OR...

e------------------------------------------------|
B------------------------------------------------|
G------------------------------------------------| I think this version
D--333-22222-32-3-- x4 --------------------------| sounds more correct
A--333-33333-11-1------THEN END ON-----3~--------|
E--------------------------------------1~--------|


Verse 1         Once again i wil let you work out the strumming

e---------------------------------------------------------------|
B---------------------------------------------------------------|
G---------------------------------------------------------------|
D-------------2-22222222--7-7777--5-5555--3-3333--5-5555--------|    X2
A-3-33333333--0-00000000--5-5555--3-3333--1-1111--3-3333--------|
E-1-11111111----------------------------------------------------|
    |------|    |------|    |--|    |--|    |--|    |-----------|
       pm          pm        pm      pm      pm      pm

Verse 1 - part 2 - Maybe you could call it the chorus ???

       (the same thing just without the palm muting)
e----------------------------------------------------------------------------|   End With
B----------------------------------------------------------------      ------|
G----------------------------------------------------------------     \------|
D-------------222222222222--777777--555555--333333--555555-------------------| X2   \/
A-3333333333--000000000000--555555--333333--111111--333333----333333---3-3---|
E-1111111111--------------------------------------------------111111---1-1---|

Or Maybe You Could Call This The Chorus. Its Got 2 guitar parts anyway

     Guitar 1
e-------------------------------------|
B-------------------------------------|
G-------------------------------------|
D----------------555555---------------|  X4
A-333333-6666666-333333--22-2--22-2---|
E-111111-4444444---------00-0--00-0---|
                         |-|   |-|
                          pm   pm
     Guitar 2
e----------------------------------------------------|
B----------------------------------------------------|
G-14-14-14-14-14-13-13-13-13-13-12-12-12-12-12-12--9-|
D----------------------------------------------------|   X4
A-12-12-12-12-12-11-11-11-11-11-10-10-10-10-10-10--7-|
E----------------------------------------------------|

Verse 2

e-----------------------------------------------------------------|
B-----------------------------------------------------------------|
G-----------------------------------------------------------------|
D-------------------------5-55555---------------------------------|   X2
A-3-3333333--5-55555555---3-33333---5-5555---3-3333---5-5555------|
E-1-1111111--3-33333333-------------3-3333---1-1111---3-3333------|
    |-----|    |------|     |---|     |--|     |--|     |---------|
      pm          pm          pm       pm       pm       pm

Verse 2 Part 2 (bit different this time)

e-------------------------------------------------------------|
B-------------------------------------------------------------|
G-------------------------------------------------------------|
D-555555------------------------------------------555555--5-5-|  X2
A-333333--222222--777777--555555--333333--555555--333333--3-3-|
E---------000000--555555--333333--111111--333333--------------|

Now Back To the part With 2 guitars

     Guitar 1
e-------------------------------------|
B-------------------------------------|
G-------------------------------------|
D----------------555555---------------|  X4
A-333333-6666666-333333--22-2--22-2---|
E-111111-4444444---------00-0--00-0---|
                         |-|   |-|
                          pm   pm
     Guitar 2
e----------------------------------------------------|
B----------------------------------------------------|
G-14-14-14-14-14-13-13-13-13-13-12-12-12-12-12-12--9-|
D----------------------------------------------------|   X4
A-12-12-12-12-12-11-11-11-11-11-10-10-10-10-10-10--7-|
E----------------------------------------------------|


and there ya have it. its probly not tottaly correct cos its my 1st tab. but its better 
any of the others on this site. L8rz
Tap to rate this tab
# A B C D E F G H I J K L M N O P Q R S T U V W X Y Z