Nofx - Kill All The White Man tab

Kill All The White Man
NOFX


tuning standard


reggae intro (oh yeah oh yeah, kill all the white man)

guitar 1

e|----4--4--4--4---5--5---7--7----|
B|----5--5--5--5---7--7---9--9----|
G|----4--4--4--4---6--6---8--8----|
D|--------------------------------|
A|--------------------------------|
E|--------------------------------|

repeat it many many many many times


chorus part 1

guitar 1

e|------------------------------------------|
B|------------------------------------------|
G|------------55555555--44444444--33333333--|
D|--33333333--55555555--55555555--33333333--| x2
A|--33333333--33333333--55555555--11111111--|
E|--11111111------------33333333------------|

guitar 2 comes in the second time

e|----------------------------------|
B|----------------------------------|
G|----------55~~~~--44~~~~--33~~~~--|
D|--33~~~~--55~~~~--55~~~~--33~~~~--|
A|--33~~~~--33~~~~--55~~~~--11~~~~--|
E|--11~~~~----------33~~~~----------|



chorus part 2 (kill all the white man)

guitar 1 and 2

e|----------------------------------------------------|
B|----------------------------------------------------|
G|--55555555--------------77777777--------------------|
D|--55555555---55555555---77777777---33333333---------|
A|--33333333---55555555---55555555---33333333---------|
E|-------------33333333--------------11111111---------|

continues until the end
Tap to rate this tab
 
# A B C D E F G H I J K L M N O P Q R S T U V W X Y Z