Nofx - Party Enema tab

-------------------------------------------------------------------------------
			    Party Enema - NOFX
-------------------------------------------------------------------------------
Tabbed by:Fender52
Email:

Tuning:Drop D

e|------------------------------------------------------------------|
B|------------------------------------------------------------------|
G|------------------------------------------------------------------|
D|-7-7-7-7--2-2-2-2--5-5-5-5--5-5-5-5--7-7-7-7--2-2-2-2--5-5-5-5--5-|
A|-7-7-7-7--2-2-2-2--5-5-5-5--4-4-4-4--7-7-7-7--2-2-2-2--5-5-5-5--4-|
D|-7-7-7-7--2-2-2-2--5-5-5-5--0-0-0-0--7-7-7-7--2-2-2-2--5-5-5-5--0-|
PM * * * *  * * * *  * * * *  * * * *  * * * *  * * * *  * * * *  

e|--------------------------------------------------------|
B|--------------------------------------------------------|
G|--------------------------------------------------------|
D|-7-7-7--2-2-2--5-5-5--0-0-0--7-7-7--2-2-2--5-5-5--0-0-0-|
A|-7-7-7--2-2-2--5-5-5--0-0-0--7-7-7--2-2-2--5-5-5--0-0-0-|
D|-7-7-7--2-2-2--5-5-5--0-0-0--7-7-7--2-2-2--5-5-5--0-0-0-|

pretty much the whole song. its really easy if you just listen to the song
Tap to rate this tab
 
# A B C D E F G H I J K L M N O P Q R S T U V W X Y Z