Nofx - Lori Meyers tab

Alright so here is a NoFX song that has a simple structure but plenty of variety in it. 
figured I'd tab it out for everyone since my band is covering it soon. Listen to the 
for the timing of all this!
Enjoy!!!

INTRO
=====

Rhythm
e-----------------------------|
B-----------------------------|
G-4---------------------------|
D-4--5--7--4------------------|
A-2--5--7--4------------------|
E----3--5--2------------------|

Lead
e--------------|---------------------|
B--------------|---------------------|
G-7--9--11-----|-6--7--9---6--7--15--|
D-x--x---x--x2-|-x--x--x---x--x---x--|
A-5--7---9-----|-4--5--7---4--5--13--|
E--------------|---------------------|


Fat Mike - VERSE
================

e-----------------------------|
B-----------------------------|
G-4-----12--11-----7----------|
D-4--7---x--12--7--7--4-------|
A-2--7--10---9--7--5--4-------|
E----5----------5-----2-------|

e--------------------|----------------|
B--------------------|----------------|
G-4-----12--11-----7-|----------------|
D-4--7---x--12--7--7-|-8~-8~-8~-8~----|
A-2--7--10---9--7--5-|-9~-9~-9~-9~----|
E----5----------5----|-0~-0~-0~-0~----|
		      Pick Slide over the 4th chord

Kim Shattuck - VERSE
====================
Sludge Beat
e---------------------------|
B---------------------------|
G-4--------------7----------|
D-4--7--5--4--7--7----------|
A-2--7--5--5--7--5----------|
E----5--3--2--5-------------|
Sludge Beat
e---------------------------|
B---------------------------|
G-4--------------7--11------|
D-4--7--5--4--7--7---8------|
A-2--7--5--5--7--5---9------|
E----5--3--2--5-------------|
Punk Beat
e----------------------------|
B----------------------------|
G-4-----12--11-----7---------|
D-4--7---x--12--7--7---------|
A-2--7--10---9--7--5---------|
E----5----------5------------|
Rock n' Roll Beat
e----3-------------|
B----3-------------|
G-4--4-------------|
D-4--5--7--4-------|
A-2--5--7--4-------|
E----3--5--2-------|

OUTRO
=====

Rhythm
e-----------------------------|
B-----------------------------|
G-4---------------------------|
D-4--5--7--4------------------|
A-2--5--7--4------------------|
E----3--5--2------------------|

e-----------------------------|
B-----------------------------|
G-4--7------------------------|
D-4--7--7--5-8----------------|
A-2--5--7--5-9----------------|
E-------5--3------------------|

Lead
e--------------|---------------------|
B--------------|---------------------|
G-7--9--11-----|-6--7--9---6--7--15--|
D-x--x---x--x2-|-x--x--x---x--x---x--|
A-5--7---9-----|-4--5--7---4--5--13--|
E--------------|---------------------|

e--------------|------------------|
B--------------|------------------|
G-7--9--11-----|-6--7--9---6--15--|
D-x--x---x--x2-|-x--x--x---x---x--|
A-5--7---9-----|-4--5--7---4--13--|
E--------------|------------------|


INTRO x1
Fat Mike VERSE x2
Kim Shattuck VERSE x1
OUTRO x2

Tabbed by Victor Vega's ears and hands

http://www.facebook.com/uoydnim
Tap to rate this tab
 
# A B C D E F G H I J K L M N O P Q R S T U V W X Y Z