Nofx - The Quitter tab

-------------------------------------------------------------------------------
			     The Quitter - NOFX
-------------------------------------------------------------------------------
Tabbed by: Dakota Richards
Email: sandblastedhalo@yahoo.com

Tuning: E standard (EADGBe)

| /   slide up
| \   slide down
| .   Palm Mute

Riff 1 (After this do a pick slide)
|----------|Guitar from left speaker plays this|--------|
|----------|                                   |--------|
|----------|                                   |--------|
|-10-10--9-|                                   |--------|
|-8--8---7-|                                   |-3-3-2--|
|----------|                                   |-1-1-0--|

Riff 2
|---------------------------------------------------------------------|
|---------------------------------------------------------------------|
|-9999/12121212/14141414/16161616\14141414\12121212/1414141414141414--|
|---------------------------------------------------------------------|
|-7777/10101010/12121212/14141414\12121212\10101010/1212121212121212--|
|---------------------------------------------------------------------|

----------------------------------------------------------------------|
----------------------------------------------------------------------|
--9999/12121212/14141414/16161616\14141414\12121212\9999/12121212-----|
----------------------------------------------------------------------|
--7777/10101010/12121212/14141414\12121212\10101010\7777/10101010-----|
----------------------------------------------------------------------|

Riff 3
|--------------------------------------------------------|
|--------------------------------------------------------|
|--------------------------------------------------------|
|-9-9-999999--7-7-777777---------------------10-10-1010--|
|-7-7-777777--5-5-555555--7-7-777777--5-5-55-8--8--8-8---|
|-------------------------5-5-555555--3-3-33-------------|
      ......      ......      ......      ..       . .

-----------------------------------------------|
-----------------------------------------------|
-----------------------------------------------|
--9-9-999999--7-7-777777-------------------10--|
--7-7-777777--5-5-555555--7-7-777777--5555-8---|
--------------------------5-5-555555--3333-----|
      ......      ......      ......

Riff 4
|-------------------------------------------------|
|-------------------------------------------------|
|-------------------------------------------------|
|-------------------------7-7-777777--------------|
|-2-2-222222--5-5-555555--5-5-555555--7-7-777777--|
|-0-0-000000--3-3-333333--------------5-5-555555--|

-------------------------------------------------------|
-------------------------------------------------------|
-------------------------------------------------------|
--9-9-999999--7-7-777777--------------------10101010-9-|
--7-7-777777--5-5-555555--7-7-777777--5555--8-8-8-8--7-|
--------------------------5-5-555555--3333-------------|

Riff 5
|--------|
|--------|
|--------|
|--------|
|-99999--|
|-77777--|


Order:
Riff 1 - X3
Riff 2 - X1
Riff 3 - X1
Riff 4 - X1
Riff 1 - X1
Riff 2 - X2
Riff 3 - X1
Riff 4 - X1
Riff 5 - X1
Riff 4 - X1
Riff 2 - X1

And end the song with (let it ring)
|----|
|----|
|----|
|-2--|
|-2--|
|-0--|

Lyrics:

Be a winner not a problem admitter un quit (I quit, I'm shit)
Better to be a hepper than a healthy 12 stepper, forfeit (I'm shit)

You wanna keep it goin' but you don't know how
Everyone at meetings gets a Löwenbräu
You quit, you're shit, you're a quitter
(I quit, I'm shit, I'm a quitter)
And no one likes you

Start a pattern of behavior; I see no reason to stop. (Don't stop, don't drop)
You got a habit, got to have it 'til it's finished don't drop (Don't drop)

The Charlie Chan's chopped, Pabst pitcher been poured
You got a spare kidney and your liver looks bored
So stop fucking around
(With friends like you I'm fucked)
You're buying the next round

You wanna be a Thompson, Hemingway, Bukowski
Banging Bill Burroughs lived to 83
You're famous and you're rich, (You're a fucking dickhead)
Quit acting like a bitch

And no one likes you!
Tap to rate this tab
 
# A B C D E F G H I J K L M N O P Q R S T U V W X Y Z