Song name
# A B C D E F G H I J K L M N O P Q R S T U V W X Y Z

Nofx - Buggely Eyes tab

e --3---2---00---1---3--3-3-3-|
b --5---4---22---1---3--5-3-5-|
g --5---4---22---2---4--5-4-5-|
d --5---4---22---3---5--5-5-5-|
a -3---2---0-----3---5--3-5-3-|
e --------------1---3-----3---|
            ^^
           upstroke


end of trumpet part
e -3-2-1-0-------0--1--3--3-3-3-|
b -5-4-3-2-----2----1--3--5-3-5-|
g -5-4-3-2---2------2--4--5-4-5-|
d -5-4-3-2-2--------3--5--5-5-5-|
a -3-2-1-0----------3--5--3-5-3-|
e -----------------1--3-----3---|
Tap to rate this tab
 
# A B C D E F G H I J K L M N O P Q R S T U V W X Y Z