Song name
# A B C D E F G H I J K L M N O P Q R S T U V W X Y Z

Nofx - Youre Wrong tab

nofx - you're wong

you can figure out the strumming

intro                               x1

e--2-------2--------2--------3--------------------------------------|
b--3-------3--------2--------3--------------------------------------|
g--4-------2--------2--------4--------------------------------------|
d--4----------------4--------5--------------------------------------|
a--2----------------4--------5--------------------------------------|
e-------------------2--------3--------------------------------------|

verse                                                           / 2nd time
                                                             X2 /end on
e--7-------3--------2--------2-----------------------2------/------2------|
b--8-------3--------3--------3-----------------------3------/------3------|
g--9-------4--------2--------4-----------------------4------/------2------|
d--9-------5-----------------4-------5-------7-------4------/-------------|
a--7-------5-----------------2-------5-------7-------2------/-------------|
e----------3-------------------------3-------5--------------/-------------|
                                    pm       pm


chorus                                 x2

e----------------------------2------------|
b----------------------------3------------|
g----------7-----------------4------------|
d--5-------7--------7--------4------------|
a--5-------5--------7--------2------------|
e--3----------------5---------------------|


2nd verse                                            x2          / 2nd time
                                                                 /end on
e--7-------3--------2--------2-----------------------2------/------2------|
b--8-------3--------3--------3-----------------------3------/------3------|
g--9-------4--------2--------4-----------------------4------/------2------|
d--9-------5-----------------4-------5-------7-------4------/-------------|
a--7-------5-----------------2-------5-------7-------2------/-------------|
e----------3-------------------------3-------5--------------/-------------|
                                    pm       pm



2nd chorus                                 x1

e----------------------------2------------|
b----------------------------3------------|
g----------7-----------------4------------|
d--5-------7--------7--------4------------|
a--5-------5--------7--------2------------|
e--3----------------5---------------------|



e------------------------------------------|
b------------------------------------------|
g----------7-------------------------------|
d--5-------7--------7----------------------|
a--5-------5--------7--------9-------------|
e--3----------------5--------6-------------|


outro


e------------------------------------------|
b------------------------------------------|
g----------7-------------------------------|
d--5-------7--------7--------5-------------|
a--5-------5--------7--------5-------------|
e--3----------------5--------3-------------|
Tap to rate this tab
 
# A B C D E F G H I J K L M N O P Q R S T U V W X Y Z