Song name
# A B C D E F G H I J K L M N O P Q R S T U V W X Y Z

Nofx - My Orphan Year Acoustic tab

My Orphan Year Acoustic

tabbed by Tomsotyyo.

this song is played with finger picking, i can't do that well
so i pick it my best.

intro
  C   A F G
e-0---0-0-3------------------|
B-1---1-1-3------------------|
G-0---2-2-4------------------|
D-2---2-3-5------------------|
A-3-2-0-3-5------------------|
E-------1-3------------------|

C

e-------------------------|
B--------1----------------|
G----0--------------------|
D--2---2--2---------------|
A-3-3-3-3-----------------|
E-------------------------|

B whatever

e-------------------------|
B-------------------------|
G----4---4----------------|
D--4---4------------------|
A-2-2-2-2-----------------|
E-------------------------|

Am

e-------------------------|
B--------1----------------|
G----2--------------------|
D--2---2------------------|
A-0-0-0-0-----------------|
E-------------------------|

F something

e-------------------------|
B-------------------------|
G----2--------------------|
D--------3----------------|
A--3---3------------------|
E-1-1-1-1-----------------|

D something

e-------------------------|
B--------6----------------|
G----7--------------------|
D--7---7------------------|
A-5-5-5-5-----------------|
E-------------------------|

G something

e------------------------------|
B------------------------------|
G--------4---------------------|
D----5-------------------------|
A--5---5-----------------------|
E-3-3-3-3----------------------|

I call this next part a pre-chorus.
idk if it is.
or the end of the verse.

Pre-chorus.
"I had things to do, and so he died without his son"

C B A F, then "raising me alone wasn't much fun"
strum the F chord.

verse 2.

C B A F D F

pre-chorus.
"raising me alone wasn't much fun"

C B A F

"dad i can't forgive you"

C G D F C G D F

strum part.

C A D ...

C A F

sad part. (with a variation of the regular arpgeggios)

C B A just end getting slower.
Tap to rate this tab
 
# A B C D E F G H I J K L M N O P Q R S T U V W X Y Z