Nofx - Johnny B Goode tab

Johnny B Goode
From P.M.R.C. Can Suck On This/The Longest EP
Tabbed by chargerbandit
Tabbed 25.6.2011
Revised 11.7.2011

Probably one of their best,sloppy but great cover of Chuck Berry

This tab is not fully complete,tiny solos are missing,kinda impossible to tab.

(/) Slide Up  (\) Slide Down  (h) Hammer On  (p) Pull Off  (b) Bend (r) Release 
(v) Vibrato (l) Let ring


intro part
E|--44444----------------------------|
B|--44444-6-4-6----------------------|
G|--------6-4-6----------------------|
D|-----------------------------------|
A|-----------------------------------|
E|-----------------------------------|
repeat as needed,some times play the first chord

verse
E|--------------|
B|--------------|
G|--------------|
D|-----6--------|
A|--6--4--6-----|
E|--4-----4-----|
play a few times each chord,I think it is 8x for first chord,4x for second chord

verse2
E|--------------|
B|--------------|
G|--------------|
D|--8--6--------|
A|--6--4--6-----|
E|--------4-----|
each chord 4x I think


tiny solo
E|-----------------------
B|-----improvise on these
G|-----two strings------------------------------|
D|----------------------------------------------|
A|-----------------------each time end with -6--|
E|-----------------------                   -4--|
improvise with this pattern: 4-2-1

Structure:

figure it out yourself,I got this from the live footage,just screw up and
improvise a lot to get it right.

Have fun. I also accept any chat,improvisations on tabs and suggestions for tabs on: 
chargerbandit.69@gmail.com
Tap to rate this tab
 
# A B C D E F G H I J K L M N O P Q R S T U V W X Y Z