Song name
# A B C D E F G H I J K L M N O P Q R S T U V W X Y Z

Nofx - Creeping Out Sara tab

-------------------------------------------------------------------------------
			     CREEPING OUT SARA - NOFX
-------------------------------------------------------------------------------
Tabbed by: ElSuperSinister
Email: elsupersinister@hotmail.ca

Tuning: Standard

Intro
e|-----------------|x2|---|
B|-----------------|  |---|
G|----4~ 7~ 9~ ----|  |---|
D|-7~ 4~ 7~ 9~ 7~ -|  |-7-|
A|-7~ 2~ 5~ 7~ 7~ -|  |-7-|
E|-5~ ---------5~ -|  |-5-|

Verse
e|Palm Muted-|x2|--------------------|
B|-----------|  |--------------------|
G|----767--9-|  |----6-7----767------|
D|-7--767--9-|  |-4--6-7--7-767--7~ -|
A|-7--545--7-|  |-4--4-5--7-545--7~ -|
E|-5---------|  |-2-------5------5~ -|

Intro Again

Verse 2                  
e|Palm Muted-|x2|--------------------|
B|-----------|  |--------------------|
G|----767--9-|  |----6-7------767----|
D|-7--767--9-|  |-4--6-7---7--767--7-| 
A|-7--545--7-|  |-4--4-5---7--545--7-| 
E|-5---------|  |-2--------5-------5-| 

e|-----------|x2|--------| |-----------|x2
B|-----------|  |--------| |-----------|
G|----767--9-|  |----6-7-| |----767--9-|
D|-7--767--9-|  |-4--6-7-| |-7--767--9-| 
A|-7--545--7-|  |-4--4-5-| |-7--545--7-| 
E|-5---------|  |-2------| |-5---------|

Breakdown
e|----------------------|
B|----------------------|
G|-7--11-9--14--11-7--9-|
D|-7--11-9--14--11-7--9-|
A|-5--9--7--12--9--5--7-|
E|----------------------|

Verse 3 (Not Palm Muted)           (Palm Muted)
e|-----------|x2|---------| |----------|x3|-------------|
B|-----------|  |---------| |----------|  |-------------|
G|----767--9-|  |----6-7--| |---767--9-|  |----767------|
D|-7--767--9-|  |-4--6-7--| |-7-767--9-|  |-7--767--7~ -|
A|-7--545--7-|  |-4--4-5--| |-7-545--7-|  |-7--545--7~ -|
E|-5---------|  |-2-------| |-5--------|  |-5-------5~ -| THE END


Thanks for reading!
Tap to rate this tab
 
# A B C D E F G H I J K L M N O P Q R S T U V W X Y Z