Song name
# A B C D E F G H I J K L M N O P Q R S T U V W X Y Z

Nofx - Bottles To The Ground tab

-----------------------------------------------------------------------
Bottles to the Ground - NOFX
-----------------------------------------------------------------------

Tabbed by Sean Blair (Zell182)
E-mail: seanblair12345@hotmail.co.uk

Tuning: Standard E A D G B e
                                   
                                    
Intro: (Guitar 1) (Distortion)
                                         X4
|-----------------------------------------|
|---00---00---00---00---11---11---11---11-|
|---00---00---00---00---00---00---00---00-|
|-22---22---22---22---22---22---22---22---|
|-----------------------------------------|
|-----------------------------------------|

 (Guitar 2)
|-----------------------------------------|
|-----------------------------------------|
|-----------------------------------------|
|-55--55-55-55--55-55-55--55-55-55--55-55-|
|-55--55-55-55--55-55-55--55-55-55--55-55-|
|-33--33-33-33--33-33-33--33-33-33--33-33-|


Verse: (Guitar 1)
      X4     X4     X4     X4     X8
|------|------|------|------|------|
|---00-|---00-|---00-|---00-|---00-|
|---00-|---00-|---00-|---00-|---00-|
|-22---|-11---|-00---|------|------|
|------|------|------|-44---|-33---|
|------|------|------|------|------|

 (Guitar 2)
|----------------------------------------------------|
|----------------------------------------------------|
|----------------------------------------------------|
|-2222222222222222-1111111111111111-0000000000000000-|
|----------------------------------------------------|
|----------------------------------------------------|

|---------------------------------------------------|
|---------------------------------------------------|
|---------------------------------------------------|
|---------------------------------------------------|
|-4444444444444444-33333333333333333333333333333333-|
|---------------------------------------------------|







Chorus: (Both Guitars)
             X3
|-------------|-----------|
|-------------|-----------|
|-------55----|------5555-|
|-55-33-55-55-|-7777-5555-|
|-55-33-33-55-|-7777-3333-|
|-33-11----33-|-5555------|


Pre-Verse: (Guitar 1)
                                         X2
|-----------------------------------------|
|---00---00---00---00---11---11---11---11-|
|---00---00---00---00---00---00---00---00-|
|-22---22---22---22---22---22---22---22---|
|-----------------------------------------|
|-----------------------------------------|

 (Guitar 2)
|---------------------|
|---------------------|
|---------------------|
|-55--55-55-55--55-55-|
|-55--55-55-55--55-55-|
|-33--33-33-33--33-33-|


Outro: (Flanger) (Guitar 1)
                                                   X2
|---------------------------------------------------|
|---------------------------------------------------|
|-----------------------------------555555555555555-|
|-5555555555555555-7777777777777777-555555555555555-|
|-5555555555555555-7777777777777777-333333333333333-|
|-3333333333333333-5555555555555555-----------------|
  ................ ................ ...............

 (Guitar 2)
|------------------------------------------------------|
|---888---888---88888---88888---8-8-8---88888----888---|
|-77-----7-----7-------7-------7-7-7---7-------77---77-|
|------------------------------------------------------|
|------------------------------------------------------|
|------------------------------------------------------|
  .....  ....  ......  ......  ......   .....  .......

 (Both Guitars)
             X4            X3
|-------------|-------------|-------------------|
|-------------|-------------|-------------------|
|-10----------|-10-14-12----|-1010-1414-1212----|
|-10-10-10-12-|-10-14-12-10-|-1010-1414-1212-10-|
|-8--10-10-12-|-8--12-10-10-|-8-8--1212-1010-10-|
|----8--8--10-|----------8--|----------------8--|


Order:                      
-Intro
-Verse
-Chorus
-Pre-Verse
-Verse
-Chorus
-Outro

/ = slide up
\ = slide down
h = hammer-on
p = pull-off
~ = vibrato
+ = harmonic
x = Mute note
. = Palm mute

=======================================================================
Tap to rate this tab
# A B C D E F G H I J K L M N O P Q R S T U V W X Y Z