Song name
# A B C D E F G H I J K L M N O P Q R S T U V W X Y Z

Nofx - See Her Pee tab

Artist: Know Eff Ecks
Song: Seaher Pea

 Watched NOFX play live a few days ago and it was awesome! Just decided to do
 this in memory of the day. While deciding which song to tab, I thought
 "hmm.. What is NOFX's most musically challenging and lyrically meaningful
  song to date?" And then I knew!:

                                  SEE HER PEE

---intro/verse Fat Mike palm-mutes
       G                A#               F                D  
B> G|-----------------------------------------------------------------------|
A> D|------------------------------------3333333333333333-0000000000000000--|
S> A|-------------------1111111111111111------------------------------------|
S> E|--3333333333333333-----------------------------------------------------|
 She got lips like stereo
 With the bass and treble down

---build up
   Hefe
    G                A#               F                D
e|-----------------------------------------------------------------------|
B|-----------------------------------------------------------------------|
G|-------------------3~--------------------------------7~----------------|
D|--5~---------------3~---------------3~---------------7~----------------| (PICK
A|--5~---------------1~---------------3~---------------5~----------------| SCRAPE)
E|--3~--------------------------------1~---------------------------------|
 |                                                            
 | Melvin                                                                  
e|-----------------------------------------------------------------------|
B|-----------------------------------------------------------------------|
G|-12~---------------10---------12---10~--------------11~----------------|
D|--x-----------------x----------x----x----------------x-----------------| (PICK
A|-10~----------------8---------10----8~---------------9~----------------| SCRAPE)
E|-----------------------------------------------------------------------|
 She got tits like microwave
 Burritos that explode

---full blow
  Hefe 
    G                A#               F                D#
e|-----------------------------------------------------------------------|
B|-----------------------------------------------------------------------|
G|-------------------3333333333333333------------------8888888888888888--|
D|--5555555555555555-3333333333333333-3333333333333333-8888888888888888--|
A|--5555555555555555-1111111111111111-3333333333333333-6666666666666666--|
E|--3333333333333333------------------1111111111111111-------------------|
 |    
 |Melvin (this could get pretty messy so...)(^^= 15x)(""= 12x)(!!= 1x)    
e|-----------------------------------------------------------------------|
B|--^^---------------""---------!!----^^---------------^^----------------|
G|--12---------------10---------12----10---------------12----------------|
D|--x-----------------x----------x-----x----------------x----------------|
A|--10----------------8---------10-----8---------------10----------------|
E|-----------------------------------------------------------------------|

 What I wouldn't give to see her pee
 Between two parked cars on a well lit street
 5th and Main

---outro
    
    Hefe
    A#
e|-----------------|
B|-----------------|
G|-----------------|
D|--8--8--8--8888--|
A|--8--8--8--8888--|
E|--6--6--6--6666--|             And that's the song!...
 |                               Lips like stereo? Microwave tits? 
 |  Melvin                       Peeing between cars??
e|---------------------|         This girl sounds like a class act!
B|---------------------|
G|--10-10-10--10101010-|
D|---x--x--x---x-x-x-x-|
A|---8--8--8---8-8-8-8-|
E|---------------------|
Tap to rate this tab
# A B C D E F G H I J K L M N O P Q R S T U V W X Y Z