Song name
# A B C D E F G H I J K L M N O P Q R S T U V W X Y Z

Nofx - Wolves In Wolves Clothing tab

NOFX-Wolves in Wolves' Clothing


|--------------------------------------------------------| 
|--------------------------------------------------------| 
|--------------------------------------------------------| 
|------------------10--12--12-/14-\12--10--12------------| 
|-3--2----2--0--12---------------------------------------| 
|------3-------------------------------------------------| 

|--------------------------------------------------------|
|----13--15--15-/17-\15--13--15--------------------------|
|-14------------------------------9--10--9----9--10--12--|
|--------------------------------------------------------|
|--------------------------------------------------------| 
|--------------------------------------------------------| 

|--------------------------------------------------------| 
|--------------------------------------------------------| 
|-9-10-12-10-9-10-9-7-9-7-5-9-7-5----9-/10--9------------| 
|----------------------------------7------------10-----10| 
|--------------------------------------------------7-10--| 
|--------------------------------------------------------| 

Tap to rate this tab
# A B C D E F G H I J K L M N O P Q R S T U V W X Y Z