Song name
# A B C D E F G H I J K L M N O P Q R S T U V W X Y Z

Nofx - Whats The Matter With The Kids Today tab

song: what's the matter with the kids today
artist: nofx
tabbed by muddymascot

muahahahaha...this one is correct, the other tab round here says it starts with an A 
you're wrong! muahahaha

tuning: dropped d: e-B-G-D-A-D (yeah, finally there's a nofx song which is not in standard
tuning)

Intro:
----
----
----
-0~-
-0~-
-0~-
then a lot of feedback and stuff like that

main riff (intro and verse):
-------------------------------------------------------|
-------------------------------------------------------|
-------------------------------------------------------|
-2--2-2-5--5-5--2--2-5-5-5---2--2-2-5--5-5-0--0-0--0-0-|
-2--2-2-5--5-5--2--2-5-5-5---2--2-2-5--5-5-0--0-0--0-0-|
-2--2-2-5--5-5--2--2-5-5-5---2--2-2-5--5-5-0--0-0--0-0-|

chorus

guitar 1:
-------------------------------------|
-------------------------------------|
-5---5-------7---7-5---5-------------|
-5---5-5---5-7---7-5---5-5---5-/////-|
-3---3-5---5-5---5-3---3-5---5-/////-|
-------3---3-------------3---3-/////-|

guitar 2:
-----------------------------------------|
-----------------------------------------|
-12---12-9---9-12---12-12---12-9---9-12~-|
--x----x-x---x--x----x--x----x-x---x--x--|
-10---10-7---7-10---10-10---10-7---7-10--|
-----------------------------------------|

and that's it...just end on the D...

yeah...thx for rating :p
Tap to rate this tab
 
# A B C D E F G H I J K L M N O P Q R S T U V W X Y Z