Song name
# A B C D E F G H I J K L M N O P Q R S T U V W X Y Z

Nofx - She Didnt Lose Her Baby tab

     ^                            ^                             
     W                   H        H           W                 
E||-------------------|--------------------|-------------------|
B||--6----------------|--L-----------------|-------------------|
G||--7----------------|--L--------7--------|--L----------------|
D||--7----------------|--L--------8--------|--L----------------|
A||--5----------------|--L--------8--------|--L----------------|
E||-------------------|-----------6--------|--L----------------|


  ^                                                                          
  W                   W                   S E  S  S  E   S S E  S  S  E   S  
-------------------|-------------------|------------------------------------|
-------------------|-------------------|------------------------------------|
--6----------------|--L----------------|------------------------------------|
--7----------------|--L----------------|--7-7--7-10-10--10------------------|
--7----------------|--L----------------|--5-5--5--8--8---8-8-8--8-10-10--10-|
--5----------------|--L----------------|-------------------6-6--6--8--8---8-|


  S E  S  S  E   S S E  S  S  E   S    S E  S  S  E   S S E  S  S  E   S  
------------------------------------|------------------------------------|
------------------------------------|------------------------------------|
------------------------------------|------------------------------------|
--7-7--7-10-10--10------------------|--7-7--7-10-10--10------------------|
--5-5--5--8--8---8-8-8--8-10-10--10-|--5-5--5--8--8---8-8-8--8-10-10--10-|
-------------------6-6--6--8--8---8-|-------------------6-6--6--8--8---8-|


  S S S S S S S S S S S S S S S S    H        E  E  E  E   
----------------------------------|-----------------------|
----------------------------------|-----------------------|
----------------------------------|-----------------------|
----------------------------------|-----------6--6--6--9--|
----8---8---8---8---8---8---8---8-|--7--------4--4--4--7--|
----6---6---6---6---6---6---6---6-|--5--------------------|

Verse 1


  S E  S S E  S S E  S S E  S    S E  S S E  S S E  S S E  S  
------------------------------|------------------------------|
------------------------------|------------------------------|
------------------------------|------------------------------|
--7-7--7-7-7--7-7-7--7-7-7--7-|------------------------------|
--5-5--5-5-5--5-5-5--5-5-5--5-|--8-8--8-8-8--8-8-8--8-8-8--8-|
------------------------------|--6-6--6-6-6--6-6-6--6-6-6--6-|


   S  E   S  S  E   S  S  E   S  S  E   S    S E  S S E  S S E  S S E  S  
------------------------------------------|------------------------------|
------------------------------------------|------------------------------|
------------------------------------------|------------------------------|
------------------------------------------|----------------6-6--6-9-9--9-|
--10-10--10-10-10--10-10-10--10-10-10--10-|--7-7--7-7-7--7-4-4--4-7-7--7-|
---8--8---8--8--8---8--8--8---8--8--8---8-|--5-5--5-5-5--5---------------|


  S E  S S E  S S E  S S E  S    S E  S S E  S S E  S S E  S  
------------------------------|------------------------------|
------------------------------|------------------------------|
------------------------------|------------------------------|
--7-7--7-7-7--7-7-7--7-7-7--7-|------------------------------|
--5-5--5-5-5--5-5-5--5-5-5--5-|--8-8--8-8-8--8-8-8--8-8-8--8-|
------------------------------|--6-6--6-6-6--6-6-6--6-6-6--6-|


   S  E   S  S  E   S  S  E   S  S  E   S    S E  S S E  S S E  S S E  S  
------------------------------------------|------------------------------|
------------------------------------------|------------------------------|
------------------------------------------|------------------------------|
------------------------------------------|----------------6-6--6-9-9--9-|
--10-10--10-10-10--10-10-10--10-10-10--10-|--7-7--7-7-7--7-4-4--4-7-7--7-|
---8--8---8--8--8---8--8--8---8--8--8---8-|--5-5--5-5-5--5---------------|


Pre-Chous

  S E  S S E  S S E  S S E  S     S  E   S  S  E   S S E  S S E  S  
------------------------------|------------------------------------|
------------------------------|------------------------------------|
------------------------------|------------------------------------|
--7-7--7-7-7--7---------------|--10-10--10-10-10--10---------------|
--5-5--5-5-5--5-8-8--8-8-8--8-|---8--8---8--8--8---8-7-7--7-7-7--7-|
----------------6-6--6-6-6--6-|----------------------5-5--5-5-5--5-|


  S E  S S E  S S E  S S E  S     S  E   S  S  E   S S E  S S E  S  
------------------------------|------------------------------------|
------------------------------|------------------------------------|
------------------------------|------------------------------------|
--7-7--7-7-7--7---------------|--10-10--10-10-10--10---------------|
--5-5--5-5-5--5-8-8--8-8-8--8-|---8--8---8--8--8---8-7-7--7-7-7--7-|
----------------6-6--6-6-6--6-|----------------------5-5--5-5-5--5-|


  S E  S S E  S S E  S S E  S     S  E   S  S  E   S S E  S S E  S  
------------------------------|------------------------------------|
------------------------------|------------------------------------|
------------------------------|------------------------------------|
--7-7--7-7-7--7---------------|--10-10--10-10-10--10---------------|
--5-5--5-5-5--5-8-8--8-8-8--8-|---8--8---8--8--8---8-7-7--7-7-7--7-|
----------------6-6--6-6-6--6-|----------------------5-5--5-5-5--5-|


  S E  S S E  S  S  E   S  S  E   S   
------------------------------------|
------------------------------------|
------------------------------------|
------------------------------------|
--8-8--8-8-8--8-10-10--10-10-10--10-|
--6-6--6-6-6--6--8--8---8--8--8---8-|

Chorus

  S E  S S E  S  S  E   S  S  E   S   
|------------------------------------|
|------------------------------------|
|------------------------------------|
|--7-7--7-10-10--10------------------|
|--5-5--5--8--8---8-8-8--8-10-10--10-|
|-------------------6-6--6--8--8---8-|



  S E  S  S  E   S S E  S  S  E   S    S E  S  S  E   S S E  S  S  E   S  
------------------------------------|------------------------------------|
------------------------------------|------------------------------------|
------------------------------------|------------------------------------|
--7-7--7-10-10--10------------------|--7-7--7-10-10--10------------------|
--5-5--5--8--8---8-8-8--8-10-10--10-|--5-5--5--8--8---8-8-8--8-10-10--10-|
-------------------6-6--6--8--8---8-|-------------------6-6--6--8--8---8-|


  S E  S S E  S  S  E   S  S  E   S     S  E   S  S  E   S S E  S S E  S  
------------------------------------|------------------------------------|
------------------------------------|------------------------------------|
------------------------------------|------------------------------------|
----------------10-10--10-10-10--10-|----------------------7-7--7-7-7--7-|
--8-8--8-8-8--8--8--8---8--8--8---8-|--10-10--10-10-10--10-5-5--5-5-5--5-|
--6-6--6-6-6--6---------------------|---8--8---8--8--8---8---------------|


  S E  S S E  S  H         
--------------------------|
--------------------------|
--------------------------|
--------------------------|
--8-8--8-8-8--8-10--------|
--6-6--6-6-6--6--8--------|



Verse 2

  S E  S S E  S S E  S S E  S    S E  S S E  S S E  S S E  S  
------------------------------|------------------------------|
------------------------------|------------------------------|
------------------------------|------------------------------|
--7-7--7-7-7--7-7-7--7-7-7--7-|------------------------------|
--5-5--5-5-5--5-5-5--5-5-5--5-|--8-8--8-8-8--8-8-8--8-8-8--8-|
------------------------------|--6-6--6-6-6--6-6-6--6-6-6--6-|


   S  E   S  S  E   S  S  E   S  S  E   S    S E  S S E  S S E  S S E  S  
------------------------------------------|------------------------------|
------------------------------------------|------------------------------|
------------------------------------------|------------------------------|
------------------------------------------|----------------6-6--6-9-9--9-|
--10-10--10-10-10--10-10-10--10-10-10--10-|--7-7--7-7-7--7-4-4--4-7-7--7-|
---8--8---8--8--8---8--8--8---8--8--8---8-|--5-5--5-5-5--5---------------|


  S E  S S E  S S E  S S E  S    S E  S S E  S S E  S S E  S  
------------------------------|------------------------------|
------------------------------|------------------------------|
------------------------------|------------------------------|
--7-7--7-7-7--7-7-7--7-7-7--7-|------------------------------|
--5-5--5-5-5--5-5-5--5-5-5--5-|--8-8--8-8-8--8-8-8--8-8-8--8-|
------------------------------|--6-6--6-6-6--6-6-6--6-6-6--6-|


   S  E   S  S  E   S  S  E   S  S  E   S    S E  S S E  S S E  S S E  S  
------------------------------------------|------------------------------|
------------------------------------------|------------------------------|
------------------------------------------|------------------------------|
------------------------------------------|----------------6-6--6-9-9--9-|
--10-10--10-10-10--10-10-10--10-10-10--10-|--7-7--7-7-7--7-4-4--4-7-7--7-|
---8--8---8--8--8---8--8--8---8--8--8---8-|--5-5--5-5-5--5---------------|


Pre-Chous

  S E  S S E  S S E  S S E  S     S  E   S  S  E   S S E  S S E  S  
------------------------------|------------------------------------|
------------------------------|------------------------------------|
------------------------------|------------------------------------|
--7-7--7-7-7--7---------------|--10-10--10-10-10--10---------------|
--5-5--5-5-5--5-8-8--8-8-8--8-|---8--8---8--8--8---8-7-7--7-7-7--7-|
----------------6-6--6-6-6--6-|----------------------5-5--5-5-5--5-|


  S E  S S E  S S E  S S E  S     S  E   S  S  E   S S E  S S E  S  
------------------------------|------------------------------------|
------------------------------|------------------------------------|
------------------------------|------------------------------------|
--7-7--7-7-7--7---------------|--10-10--10-10-10--10---------------|
--5-5--5-5-5--5-8-8--8-8-8--8-|---8--8---8--8--8---8-7-7--7-7-7--7-|
----------------6-6--6-6-6--6-|----------------------5-5--5-5-5--5-|


  S E  S S E  S S E  S S E  S     S  E   S  S  E   S S E  S S E  S  
------------------------------|------------------------------------|
------------------------------|------------------------------------|
------------------------------|------------------------------------|
--7-7--7-7-7--7---------------|--10-10--10-10-10--10---------------|
--5-5--5-5-5--5-8-8--8-8-8--8-|---8--8---8--8--8---8-7-7--7-7-7--7-|
----------------6-6--6-6-6--6-|----------------------5-5--5-5-5--5-|


  S E  S S E  S  S  E   S  S  E   S   
------------------------------------|
------------------------------------|
------------------------------------|
------------------------------------|
--8-8--8-8-8--8-10-10--10-10-10--10-|
--6-6--6-6-6--6--8--8---8--8--8---8-|

Chorus

  S E  S S E  S  S  E   S  S  E   S   
|------------------------------------|
|------------------------------------|
|------------------------------------|
|--7-7--7-10-10--10------------------|
|--5-5--5--8--8---8-8-8--8-10-10--10-|
|-------------------6-6--6--8--8---8-|



  S E  S  S  E   S S E  S  S  E   S    S E  S  S  E   S S E  S  S  E   S  
------------------------------------|------------------------------------|
------------------------------------|------------------------------------|
------------------------------------|------------------------------------|
--7-7--7-10-10--10------------------|--7-7--7-10-10--10------------------|
--5-5--5--8--8---8-8-8--8-10-10--10-|--5-5--5--8--8---8-8-8--8-10-10--10-|
-------------------6-6--6--8--8---8-|-------------------6-6--6--8--8---8-|


  S E  S S E  S  S  E   S  S  E   S     S  E   S  S  E   S S E  S S E  S  
------------------------------------|------------------------------------|
------------------------------------|------------------------------------|
------------------------------------|------------------------------------|
----------------10-10--10-10-10--10-|----------------------7-7--7-7-7--7-|
--8-8--8-8-8--8--8--8---8--8--8---8-|--10-10--10-10-10--10-5-5--5-5-5--5-|
--6-6--6-6-6--6---------------------|---8--8---8--8--8---8---------------|


  S E  S S E  S  H         
--------------------------|
--------------------------|
--------------------------|
--------------------------|
--8-8--8-8-8--8-10--------|
--6-6--6-6-6--6--8--------|


Solo

  S E  S S E  S S E  S S E  S    S E  S S E  S S E  S S E  S  
------------------------------|------------------------------|
------------------------------|------------------------------|
------------------------------|------------------------------|
--7-7--7-7-7--7-7-7--7-7-7--7-|------------------------------|
--5-5--5-5-5--5-5-5--5-5-5--5-|--8-8--8-8-8--8-8-8--8-8-8--8-|
------------------------------|--6-6--6-6-6--6-6-6--6-6-6--6-|


   S  E   S  S  E   S  S  E   S  S  E   S    S E  S S E  S S E  S S E  S  
------------------------------------------|------------------------------|
------------------------------------------|------------------------------|
------------------------------------------|------------------------------|
------------------------------------------|------------------------------|
--10-10--10-10-10--10-10-10--10-10-10--10-|--7-7--7-7-7--7-7-7--7-7-7--7-|
---8--8---8--8--8---8--8--8---8--8--8---8-|--5-5--5-5-5--5-5-5--5-5-5--5-|


  S E  S S E  S S E  S S E  S    S E  S S E  S S E  S S E  S  
------------------------------|------------------------------|
------------------------------|------------------------------|
------------------------------|------------------------------|
--7-7--7-7-7--7-7-7--7-7-7--7-|------------------------------|
--5-5--5-5-5--5-5-5--5-5-5--5-|--8-8--8-8-8--8-8-8--8-8-8--8-|
------------------------------|--6-6--6-6-6--6-6-6--6-6-6--6-|


   S  E   S  S  E   S  S  E   S  S  E   S    S E  S S E  S S E  S S E  S  
------------------------------------------|------------------------------|
------------------------------------------|------------------------------|
------------------------------------------|------------------------------|
------------------------------------------|------------------------------|
--10-10--10-10-10--10-10-10--10-10-10--10-|--7-7--7-7-7--7-7-7--7-7-7--7-|
---8--8---8--8--8---8--8--8---8--8--8---8-|--5-5--5-5-5--5-5-5--5-5-5--5-|


Pre-Chorus

  S E  S S E  S S E  S S E  S     S  E   S  S  E   S S E  S S E  S  
------------------------------|------------------------------------|
------------------------------|------------------------------------|
------------------------------|------------------------------------|
--7-7--7-7-7--7---------------|--10-10--10-10-10--10---------------|
--5-5--5-5-5--5-8-8--8-8-8--8-|---8--8---8--8--8---8-7-7--7-7-7--7-|
----------------6-6--6-6-6--6-|----------------------5-5--5-5-5--5-|


  S E  S S E  S S E  S S E  S     S  E   S  S  E   S S E  S S E  S  
------------------------------|------------------------------------|
------------------------------|------------------------------------|
------------------------------|------------------------------------|
--7-7--7-7-7--7---------------|--10-10--10-10-10--10---------------|
--5-5--5-5-5--5-8-8--8-8-8--8-|---8--8---8--8--8---8-7-7--7-7-7--7-|
----------------6-6--6-6-6--6-|----------------------5-5--5-5-5--5-|


  S E  S S E  S S E  S S E  S     S  E   S  S  E   S S E  S S E  S  
------------------------------|------------------------------------|
------------------------------|------------------------------------|
------------------------------|------------------------------------|
--7-7--7-7-7--7---------------|--10-10--10-10-10--10---------------|
--5-5--5-5-5--5-8-8--8-8-8--8-|---8--8---8--8--8---8-7-7--7-7-7--7-|
----------------6-6--6-6-6--6-|----------------------5-5--5-5-5--5-|


  S E  S S E  S  S  E   S  S  E   S    W                  
------------------------------------|-------------------||
------------------------------------|-------------------||
------------------------------------|-------------------||
------------------------------------|--7----------------||
--8-8--8-8-8--8-10-10--10-10-10--10-|--5----------------||
--6-6--6-6-6--6--8--8---8--8--8---8-|-------------------||




Duration Legend
---------------
W - whole
H - half
Q - quarter
E - 8th
S - 16th
T - 32nd
X - 64th
. - note dotted
|-n-|  - n-tuplets


Tablature Legend
----------------
L - tied note
x - dead note
g - grace note
(n) - ghost note
> - accentuded note
NH - natural harmonic
AH - artificial harmonic
TH - tapped harmonic
SH - semi harmonic
PH - pitch harmonic
h - hammer on
p - pull off
b - bend
br - bendRelease
pb - preBend
pbr - preBendRelease
brb - bendReleaseBend
\n/ - tremolo bar dip
\n - tremolo bar dive
-/n - tremolo bar Release up
/n\ - tremolo bar inverted dip
/n - tremolo bar return
-\n - tremolo bar Release down
S - shift slide
s - legato slide
/ -  slide into from below or out of upwards
\ -  slide into from above or out of downwards
~ - vibrato
W - wide vibrato
tr - trill
TP - tremolo picking
T - tapping
S - slap
P - pop
< - fade in
^ - brush up
v - brush down
Tap to rate this tab
# A B C D E F G H I J K L M N O P Q R S T U V W X Y Z