Song name
# A B C D E F G H I J K L M N O P Q R S T U V W X Y Z

Nofx - She Didnt Lose Her Baby tab

NOFX - She didnt loose here baby

Standard tuning


INTRO:                BRIDGE 1:                                         
|---------------|     |-------------------|      |-----------------------|
|---------------| x1  |-------------------| x3   |-----------------------| x1
|7--------------|     |-77--1010----------|      |----------------7--9---|
|7----8----7----|     |-77--1010--77--66--|      |-8-8-8-8--8-----7--9---|
|5----8----7----|     |-55--8-8---77--66--|      |-8-8-8-8--8-----5--7---|
|-----6----5----|     |-----------55--88--|      |-6-6-6-6--5------------|

VERSE:             
|------------------------|        
|------------------------| x2
|7-----------------7--5--|
|7----8----10---7--7--5--|
|5----8----10---7--5--7--|
|-----6----8----5--------|

(CHORUS:   x2                    x1           
|------------|---------------------||       BRIDGE 1 x3
|------------|---------------------||   
|7-----10----|7-----10-------------||      
|7--8--10-7--|7--8--10--7--8--10---||      
|5--8--8--4--|5--8--8---7--8--10---||      
|---6--------|---6------5--6--8----||      

BRIDGE 2                                        GUITAR SOLO:
|-------------------|      VERSE                |--------------------|
|-------------------| x1   CHORUS               |--------------------| x2
|---10--------------|      BRIDGE 1             |7-------------------|
|8--10-10-7--8--10--|      BRIDGE 2             |7----8----10---7----|
|8--8--10-7--8--10--|      SOLO                 |5----8----10---7----|
|6-----8--5--6--8---|      CHORUS               |-----6----8----5----|
                           
Tap to rate this tab
# A B C D E F G H I J K L M N O P Q R S T U V W X Y Z