Song name
# A B C D E F G H I J K L M N O P Q R S T U V W X Y Z

Nofx - Anarchy Camp tab

I didnt tabbed this at all. I was looking for some tabs for this song and the one I 
founded here sounded wrong. So I googled and this was posted at the nofxwiki (I just made 
some changes in the original tab to look "cleaner").

ORIGINAL CREDITS: "Tabbed by Jussi Heinonen 24.07.2004."


Song: Anarchy Camp

by NOFX

Standard tuning.

Intro

E---6---3---6---6---|
B---6---3---8---7---|
G---7---3---8---8---|
D---8---5---8---8---|
A---8---5---6---6---|
E---6---3-----------|
:   A#  Gm  D# D#m



Verse

E--|-6---3---6---6--|
B--|-6---3---8---7--|
G--|-7---3---8---8--|  x2
D--|-8---5---8---8--|
A--|-*---*---*---*--|
E--|----------------|
:   A#  Gm  D# D#m



(so come along with me...)

E|-6---6---8---8---8---8---|
B|-6---6---8---8--10--10---|
G|-7---7---8---8--10--10---| x2
D|-8---8--10--10--10--10---|
A|-*----*---*---*---*---*--|
E|-------------------------|
   A#  A#  Cm  Cm  F   F



Bridge

E---6---5---6---5---8---8---|
B---6---6---6---6---8--10---|
G---7---7---7---7---8--10---|
D---8---7---8---7--10--10---|
A----*---*---*---*---*---*--|
E---------------------------|
:  A#   Dm  A#  Dm  Cm  F


Verse

E--|-6---3---6---6--|
B--|-6---3---8---7--|
G--|-7---3---8---8--|  x2
D--|-8---5---8---8--|
A--|-*---*---*---*--|
E--|----------------|
:   A#  Gm  D# D#m



End on A#.
Tap to rate this tab
# A B C D E F G H I J K L M N O P Q R S T U V W X Y Z