Song name
# A B C D E F G H I J K L M N O P Q R S T U V W X Y Z

Nofx - American Errorist tab

Help us improve GuitareTab! Take a short survey!
.  = P.M
b()= bending
*  = pinch harmonic

intro


e|---------------|
b|---------------|
g|9--------------|
d|9-9999999999999
a|7-7777777777777 x4
e|---------------
    .............

bridge

e|------------------|
b|------------------|
g|------------------|
d|------------------| x2
a|--22--55--77--99--|
e|00--33--55--77----|
 .................

e|------------------|
b|------------------|
g|------------------|
d|--55--------------| x2
a|------55--77--99--|
e|00--33--55--77----|
  ................


e|------------------|
b|------------------|
g|------------------|
d|------------------| x3
a|--22--55----------|
e|00--33--55557777--|
 .................

e|----------------|
b|----------------|
g|----------------|
d|----------------|
a|--22--55--------|
e|00--33--555577--|
  ................

verse


e|------------------------------------------------------------------|
b|------------------------------------------------------------------|
g|------------------------------------------------------------------|
d|9-9-9999-99-99999-9-9999-99-99995-5-5555-55-55555-5-5555-55-5555--| x2
a|7-7-7777-77-77777-7-7777-77-77773-3-3333-33-33333-3-3333-33-3333--|
e|------------------------------------------------------------------|

chorus

e|-----------------------------------------------------------------|
b|-----------------------------------------------------------------|
g|-----------------------------------------------------------------|
d|--------------------------------9-9-9999-99-99995-5-5555-55-5555-|
a|5-5-5555-55-55554-4-4444-44-44447-7-7777-77-77773-3-3333-33-3333-|
e|3-3-3333-33-33332-2-2222-22-2222---------------------------------|

bridge

e|------------------|
b|------------------|
g|------------------|
d|------------------| x2
a|--22--55--77--99--|
e|00--33--55--77----|
 .................

e|------------------|
b|------------------|
g|------------------|
d|--55--------------| x2
a|------55--77--99--|
e|00--33--55--77----|
  ................


e|------------------|
b|------------------|
g|------------------|
d|------------------| x3
a|--22--55----------|
e|00--33--55557777--|
 .................

e|----------------|
b|----------------|
g|----------------|
d|----------------|
a|--22--55--------|
e|00--33--555577--|
  ................


than the verse again

verse

e|------------------------------------------------------------------|
b|------------------------------------------------------------------|
g|------------------------------------------------------------------|
d|9-9-9999-99-99999-9-9999-99-99995-5-5555-55-55555-5-5555-55-5555--| x2
a|7-7-7777-77-77777-7-7777-77-77773-3-3333-33-33333-3-3333-33-3333--|
e|------------------------------------------------------------------|

chorus

e|-----------------------------------------------------------------|
b|-----------------------------------------------------------------|
g|-----------------------------------------------------------------|
d|--------------------------------9-9-9999-99-99995-5-5555-55-5555-|
a|5-5-5555-55-55554-4-4444-44-44447-7-7777-77-77773-3-3333-33-3333-|
e|3-3-3333-33-33332-2-2222-22-2222---------------------------------|

e|------------------------------------------------------------|
b|------------------------------------------------------------|
g|------------------------------------------------------------|
d|2--------------2--------------2-------------2---------------|
a|2-22222222222222-22222222222222-2222222222222-2222222222222-|
e|0-00000000000000-00000000000000-0000000000000-0000000000000-|
    .............  .............  ............  .............

solo

e|------------------------------------------------------|
b|8-10b(12)-8-8--10b(12)-8-8--10b(12)-8-10-10b(12)~~----|
g|------------------------------------------------------|
d|------------------------------------------------------|
a|------------------------------------------------------|
e|------------------------------------------------------|

e|-------------------------------------------|
b|----8-10~~10(b)12-8-10b(12)-8-10-10b(12)~~-|
g|7h9----------------------------------------|
d|-------------------------------------------|
a|-------------------------------------------|
e|-------------------------------------------|


e|----------------------------------------------------|
b|8-10b(12)-8-8--10b(12)-8-8--10b(12)-8-10-10b(12)~~--|
g|----------------------------------------------------|
d|----------------------------------------------------|
a|----------------------------------------------------|
e|----------------------------------------------------|

e|--------------------------------------------|
b|-8-10b(12)-8--10(b)12-8-10b(12)-8----8------|
g|----------------------------------9-----9-7-|
d|--------------------------------------------|
a|--------------------------------------------|
e|--------------------------------------------|


e|------------------------------------------------------|
b|-8-10b(12)-8-8-10b(12)-8~--8-10b(12)-8----------------|
g|---------------------------------------9--7-----------|
d|--------------------------------------------9--7s(0)--|
a|------------------------------------------------------|
e|------------------------------------------------------|

e|--------------------------------|
b|--------------------------------|
g|2b*2b*2b*2b*-------4------------|
d|----------------2b---2b--2-0----|
a|-----------------------------2--|
e|--------------------------------|


outro(same of intro)

e|-----------------------------------------------------------|
b|-----------------------------------------------------------|
g|-----------------------------------------------------------|
d|2--------------2--------------2-------------2--------------|
a|2-22222222222222-22222222222222-2222222222222-222222-------|
e|0-00000000000000-00000000000000-0000000000000-000000333355-|
    .............  .............  ............  ............
Related for American Errorist tab