Guitaretab - guitar tabs
Song name
# A B C D E F G H I J K L M N O P Q R S T U V W X Y Z

Nofx - 13 Stitches tab

Band: NOFX
Song: 13 Stitches
Album: The War on Errorism
Tabbed by: Tyler Z.
Email: kid81992@juno.com
Tuning: Standard

Really easy tune from NOFX.

Listen to song for timing!
[ Tab from: http://www.guitaretab.com/n/nofx/34394.html ]
e|---------------------------------------------------|
B|---------------------------------------------------|
G|------------------------------5--------------------|
D|---------5---------7----------5---------5----------|
A|---------5---------7----------3---------5----------|
E|---------3---------5--------------------3---3\0----|
                                    (Pick slide first time only)

e|-------------------------------------------|------|
B|-------------------------------------------|final-|
G|----7---------5---------7---------5----7---|-time-|
D|----7----2----5----5----7----2----5----7---|--5---|
A|----5----2----3----5----5----2----3----5---|--5---|
E|---------0---------3---------0-------------|--3---|

*KEY*
| \  slide down


That's all there is to it. This is my first tab, so lemme know if I'm doing anything wrong. Just e-mail me.
Related for 13 Stitches tab
Advertisement will be closed in 10 seconds