Song name
# A B C D E F G H I J K L M N O P Q R S T U V W X Y Z

Nofx - Seperation Of Church And Skate tab

Seperation of Church and Skate by NOFX

/=slide up
()= palm mute
^=bend
p=pull off
h=hammer on

Intro part 1 (5 times)

1|------------------------------------------|
2|------------------------------------------|
3|------------------------------------------|
4|------------------------------------------|
5|-0-5-3-5-3-0-5-3-5-3-0-5-3-5-3-0-0-7-0-0-6|
6|------------------------------------------|

Intro part 2 (4 times)

1|----------------------|
2|----------------------|
3|----------------------|
4|----------------------|
5|-0-5-3-5-3-0-0-7-0-0-6|
6|----------------------|

Intro part 3
         3 times         the fourth time
1|------------------|-----------------|
2|------------------|-----------------|
3|------------------|-----------------|
4|------------------|-----------------|
5|-0-5-3-5-3-0-7-0-6|-0-5-3-5-3-5/7-77|
6|------------------|-----------3/5-55|

Verse
                                              second ending
1|------------------------------------------|----|
2|------------------------------------------|----|
3|------------------------------------------|----|
4|-(--------------5555-------------99----88)|----|
5|-(77777777-3333-3333-55555555-77-77-77-66)|-7-7|
6|-(55555555-1111------33333333-55----55---)|-5-5|

Chorus
                   first time
1|---------------------------------------------------------------------|
2|---------------------------------------------------------------------|
3|---------------------------------------------------------------------|
4|-----------------------------------5555555555555555------------------|
5|-7777777777777777-3333333333333333-3333333333333333-55555555-66666666|
6|-5555555555555555-1111111111111111------------------33333333-44444444|

                 second time
1|----------------------------------------------------------------------------|
2|----------------------------------------------------------------------------|
3|----------------------------------------------------------------------------|
4|-----------------------------------5555555555555555--------------x-9-10(x16)|
5|-7777777777777777-3333333333333333-3333333333333333-777777777777-x-7--8(x16)|
6|-5555555555555555-1111111111111111------------------555555555555-x----------|

Bridge

1|--------------------------------------------------------------|
2|--------------------------------------------------------------|
3|--------------------------------------------------------------|
4|--------------------------------------------------------------|
5|-0-7-0-6-0-5-3-5-3-0-7-0-6-0-5-3-5-3-0-7-0-6-0-5-3-5-3-0-7-0-6|
6|--------------------------------------------------------------|

Verse
Chorus

2nd Verse

1|-0-2-3-1-0-0-0--------------------------------|
2|-1-3-3-1-1-1-0--------------------------------|
3|-2-2-4-2-2-0-2--------------------------------|
4|-2-0-5-3-2-2-2--------------------------------|
5|-0-------0-3---77777777777777-3333333333333333|
6|---------------55555555555555-1111111111111111|

Insert solo here: I mostly can't figure it out because of the distortion and mostly 
I'm just not good enough at guitar and tabbing to figure it out.

I'll give an effort at it...

1|--------------------|
2|--------------------|
3|-^9-9-7---------7h9-|
4|--------9p7-7h9-----|
5|--------------------|
6|--------------------|

Sorry but I'd be bullshitting myself if I thought I could figure the rest out.

Bridge
        3 times          fourth time
1|------------------|--------------|
2|------------------|--------------|
3|------------------|---9---8---7-5|
4|------------------|-7---7---7----|
5|-0-7-0-6-0-5-3-5-3|--------------|
6|------------------|--------------|

Variation on the verse

1|-------|
2|-------|
3|-------|
4|-------|
5|3-2-5-7|
6|1-0-3-5|

Chorus

Outro: This may or not be completely right

1|------------------|
2|------------------|
3|------------------|
4|-2-22-2-----------|
5|-0-00-3p0------3p0|
6|---------3-2-3----|

Thanks for viewing my tab.
Tap to rate this tab
 
# A B C D E F G H I J K L M N O P Q R S T U V W X Y Z