Song name
# A B C D E F G H I J K L M N O P Q R S T U V W X Y Z

Nofx - Ive Got One Jealous Again Again tab

NOFX - I've Got One Jealous Again, Again

Intro/Outro
e------------------------|-----------------|
b------------------------|-----------------|
g-----------------------.|-----------------|
d-------------------(5x).|-----------------|
a-4---4---8----8---------|-4---4---4---4---|
e---5---5---10---10------|---5---5---5---5-|

Riff1       Riff2
e---------- e-----------|
b---------- b-----------|
g---9-11-7- g-11-11-9---|
d-7-9-11-7- d-11-11-9-9-|
a-7-7--7-5- a--9--8-7-9-|
e-5-------- e---------7-|

[Intro]

[Riff1]
I've got one Jealous Again, again
I got one Killing Joke
I got what was bound to happen
What was broken now's been broke
I parted with my Neurosis but I kept the Lookouts
I got the record player but I didn't get the house

[Intro]

[Riff1]
I've got one Black Flag Damaged
And one Golden Shower of Hits
I left the Misfits coffin set but I fucking kept the Spits
Now I got Group Sex and No Control
I got Suffer and Let's GO
I left Freedom of Choice with the Guilt Show

[Riff2]
I knew it was over when I put on Walk Among US
You grabbed the TV remote control
You put on Survivor and I put on some headphones
And cheated with my first love rock and roll

[Riff1]
I took back my Replacements and grabbed my E13,
Bullet, Nihilistics, and the banned God Save The Queen
This wasn't like the Faith/Void
This was a clean split
If I didn't grab my records
They may all been smashed to bits

[Riff2]
Take your Guns N' Roses with the Robert Williams cover
And I'll take the Fugazi picture disc
19 or 20 years ago, I labeled my slip covers
That was a union I wasn't willing to risk

[Outro]
Tap to rate this tab
# A B C D E F G H I J K L M N O P Q R S T U V W X Y Z