Song name
# A B C D E F G H I J K L M N O P Q R S T U V W X Y Z

Nofx - Punk Song tab

PUNK SONG
NOFX

Intro (let all chords ring)
e-------------|
b-------------|
g----8-----9--|
d-6--8--9--9--|Repeat
a-6--6--9--7--|
E-4-----7-----|

Main Riff
e-------------------------------------|
b-------------------------------------|
g----------88888888----------99999999-|
d-66666666-88888888-99999999-99999999-|Repeat
a-66666666-66666666-99999999-77777777-|
E-44444444----------77777777----------|

Palm Muted Part
PM___________________________________________
e-------------------------------------------------------------------------|
b-------------------------------------------------------------------------|
g----------88888888-------------------------------------------------------|
d-66666666-88888888-99999999-1414141414141414--14141414141414--14~---6~-6-|
a-66666666-66666666-99999999-1414141414141414--14141414141414--14~---6~-6-|
E-44444444----------77777777-1212121212121212--12121212121212--12~/4-4~-4-|

The whole thing is just C#,D#,B,and E...
Tap to rate this tab
# A B C D E F G H I J K L M N O P Q R S T U V W X Y Z