Song name
# A B C D E F G H I J K L M N O P Q R S T U V W X Y Z

Nofx - The Black And White tab

THE BLACK AND WHITE by NOFX. Album : Heavy petting zoo (1996)             1/3

ALL THE CREDITS GO TO JUSSI HEINONEN WHO TABBED THIS BUT HE DIDN'T POSTED IT

Cool song with great drums. The solo is impossible to tab! (Luckily solo is
the third guitar!)
A=Melvin   B=El Hefe   A&B=both
:
# intro #A&B X4   /x\=palm-mute
E-------/---\-----/-----\---------/---\-----/-----------\---|
B-----------------------------------------------------------|
G-----------------------------------------------------------|
D---2---2-2-2-2---2-2-2-2-----5---5-5-5-5---5-5-5-5-5-5-5---|
A---2---2-2-2-2---2-2-2-2-0---5---5-5-5-5---5-5-5-5-5-5-5---|
E---0---0-0-0-0---0-0-0-0-2---3---3-3-3-3---3-3-3-3-3-3-3---|
:
# intro2 #A??? X3      B??? plays intro A&BX3
E-----------------------------------------------------------|
B-----------------------------------------------------------|
G-----------------------------------------------------------|
D---55555------55555------4---55555------55555------55------|
A-----------------------------------------------------------|
E-----------------------------------------------------------|
:
# intro3 #A???
E------------------------------------------------|
B------------------------------------------------|
G----------------------------------------77777---|
D---55555------55555------4---5----------77777---|
A----------------------------------------55555---|
E------------------------------------------------|
# intro3 #B???    /x\=palm-mute
E-------/---\-----/-----\------------------------|
B------------------------------------------------|
G-----------------------------5----------77777---|
D---2---2-2-2-2---2-2-2-2-----5----------77777---|
A---2---2-2-2-2---2-2-2-2-0---3----------55555---|
E---0---0-0-0-0---0-0-0-0-2----------------------|
:
# solo-background #A   *=play 6X             /x\=palm-muted
E---------------------------/---\--------------|
B----------------------------------------------|
G----*-------*-------*-----------7-5-------7---|
D---5-------7-------9-------222227-5-------7---|
A---5-------9------10-------222225-3-------5---|
E---3-----------------------00000--------------|
# solo-background #B   *=play 6X             /x\=palm-muted
E---------------------------/---\--------------|
B----------------------------------------------|
G----*-------*-------*-------------------------|
D---5-------7-------9-------222224-5-------4---|
A---5-------9------10-------22222--------------|
E---3-----------------------00000--------------|
:
# verse #A&B   *=play 6X   %=pause   /x\=palm-muted
E---------------------------/---\------------------3---|
B--------------------------------------------------3---|
G----*-------*-------*-----------7-5---------------4---|
D---5-------7-------9-------222227-5-------3-------5---|
A---5------%9-----%10-------222225-3-------3-------5---|
E---3-----------------------00000----------1-------3---|
 
:
THE BLACK AND WHITE                                                       2/3
:
# verse-part2 #A   *=play 6X   %=pause   /x\=palm-muted
E---------------------------/---\------------------3---|
B--------------------------------------------------3---|
G----*-------*-------*-----------7-5---------------4---|
D--10-------7-------9-------222227-5-------3-------5---|
A--12------%9-----%10-------222225-3-------3-------5---|
E---------------------------00000----------1-------3---|
# verse-part2 #B   *=play 6X   %=pause   /x\=palm-muted
E---------------------------/---\------------------3---|
B--------------------------------------------------3---|
G----*-------*-------*-----------------------------4---|
D--10-------7-------9-------222224-5-------3-------5---|
A--12------%9-----%10-------22222----------3-------5---|
E---------------------------00000----------1-------3---|
:
# chorus #A&B X2      !play all notes X6!     /x\=palm-muted       
E---------------------------------------/-----\---|
B-------------------------------------------------|
G---------------5-----------5---------------------|
D---7-----5-----5-----3-----5-----5-----3-----3---|
A---7-----5-----3-----3-----3-----5-----3-----3---|
E---5-----3-----------1-----------3-----1-----1---|
:
# end-chorus #A&B   !play all notes X6!  (So he may be fucking her...)
E-------------------------|
B-------------------------|
G---5-----7----10----12---|
D---5-----7----10----12---|
A---3-----5-----8----10---|
E-------------------------|
:
# verse2 #A   *=play 6X   %=pause   /x\=palm-muted
E---------------------------/---\------------------3---|
B--------------------------------------------------3---|
G----*-------*-------*-----------7-5---------------4---|
D--10-------7-------9-------222227-5-------3-------5---|
A--10------%9-----%10-------222225-3-------3-------5---|
E---8-----------------------00000----------1-------3---|
# verse2 #B   *=play 6X   %=pause   /x\=palm-muted
E---------------------------/---\------------------3---|
B--------------------------------------------------3---|
G----*-------*-------*-----------------------------4---|
D--10-------7-------9-------222224-5-------3-------5---|
A--10------%9-----%10-------22222----------3-------5---|
E---8-----------------------00000----------1-------3---|
:
Then play A&Bverse-part2A, Averse-part2A or Bverse-part2B and A&BchorusA&BX2.
:
# end-chorus #A&B   *=play 6X   (Cause she may be off her back...)
E-------------------------------|
B----*--------------------------|
G---5------*-----*-----*----5---|
D---5-----2-----3-----5-----5---|
A---3-----2-----3-----5-----3---|
E---------0-----1-----3---------|
:
# bridge #A&B X3   !palm-muted!
E-------------------------------------------------|
B-------------------------------------------------|
G-------------------------------------------------|
D---2-2-0-2-2--0-0-0-0-0--7-7-5-7-7--1212---------|
A---3-3-2-3-3--2-2-0-2-2--5-5-5-5-5--1010-7-5-5---|
E-----------------------------------------8-7-7---|
:
>>>>>>>>to next page...
:
THE BLACK AND WHITE                                                       3/3
:
# bridge #A&B      !palm-muted!   (His sexuality's...)                >
E--------------------------------------------------------------------->
B--------------------------------------------------------------------->
G--------------------------------------------------------------------->
D---2-2-0-2-2--7-7-5-7-7-1212121212--1212--------2-2-0-2-2--7-7-5-7-7->
A---3-3-2-3-3--5-5-5-5-5-1010101010--1010-7-5-5--3-3-2-3-3--5-5-5-5-5->
E-----------------------------------------8-7-7----------------------->
>bridgeA&B
E------------------------------------------------------------|
B------------------------------------------------------------|
G------------------------------------------------------------|
D---------------------------7-7-7-7---2-2-0-2-2--7-7-5-7-7---|
A---5-5-5-5-0-0-0-0-2-2-2-2-5-5-5-5---3-3-2-3-3--5-5-5-5-5---|
E---3-3-3-3-2-2-2-2-0-0-0-0----------------------------------|
:
# outro #A   *=play 6X   %=pause   /x\=palm-muted
E---------------------------/---\----------------------|
B------------------------------------------------------|
G----*-------*-------*-----------7-5-------7-----------|
D---5-------7-------9-------222227-5-------7-------5---|
A---5------%9-----%10-------222225-3-------5-------5---|
E---3-----------------------00000------------------3---|
# outro #B   *=play 6X   %=pause   /x\=palm-muted
E---------------------------/---\----------------------|
B------------------------------------------------------|
G----*-------*-------*---------------------------------|
D---5-------7-------9-------222224-5-------4-------5---|
A---5------%9-----%10-------22222----------------------|
E---3-----------------------00000----------------------|
:
There is it in black and white!
Tabbed by Jussi Heinonen 20.08.1998.
Tap to rate this tab
# A B C D E F G H I J K L M N O P Q R S T U V W X Y Z