Song name
# A B C D E F G H I J K L M N O P Q R S T U V W X Y Z

Nofx - Release The Hostages tab

RELEASE THE HOSTAGES by NOFX. Album : Heavy petting zoo (1996)            1/2

ALL THE CREDITS GO TO JUSSI HEINONEN WHO TABBED THIS BUT HE DIDN'T POSTED IT

Real power-pack!
A=Melvin   B=El Hefe   A&B=both
:
# intro #A&B
E---5-------8-------3---1---5---8---3---1---|
B---5-------8-------3---1---5---8---3---1---|
G---6-------9-------4---2---6---9---4---2---|
D---7------10-------5---3---7--10---5---3---|
A-------------------------------------------|
E-------------------------------------------|
:   A       C       G   F   A   C   G   F
:
# intro2 #A&B X4   !palm-mute!      # intro3 #A&B X2 (end with first note)
E------------------------|          E---5---8---3---1---|
B------------------------|          B---5---8---3---1---|
G------------------------|          G---6---9---4---2---|
D------------------------|          D---7--10---5---3---|
A---7-7-7771010-10-7-5---|          A-------------------|
E---5-5-555-8-8--8-5-3---|          E---A---C---G---F---|
:
# verse #A&B   !play all notes X6!      %=pause
E---------------------------------------------------------------|
B---------------------------------------------------------------|
G---------------------------------------------------------------|
D---3---5---2---7---3---5---2---7--10---5---3---7--10---5---3---|
A---3---5---2---7---3---5---2---7--10---5---3---7--10---5---3---|
E---1---3---0---5---1---3---0---5---8---3---1---5---8---3--%1---|
:
# verse2 #A !play all notes X6! %=pause   (My good friend...)
E-----------------------------------|
B-----------------------------------|
G-----------------------------------|
D---7--10---5---3---7--10---5---3---|
A---7--10---5---3---7--10---5---3---|
E---5---8---3---1---5---8---3--%1---|
# verse2 #B !play all notes X6! %=pause
E-----------------------------------|
B-----------------------------------|
G-----------------------------------|
D--11--10---9---7--11--10---9--%7---|
A-----------------------------------|
E-----------------------------------|
:
# chorus #A&B  !play all notes X6!   *=play 3X
E-------------------------------------------------------------|
B---------------------*--*-----------------------*------------|
G--10----12----14----14-12-10----12-----------*-12-10----12---|
D--10----12----14----14-12-10----12----10----10-12-10----12---|
A---8----10----12----12-10--8----10----10----10-10--8----10---|
E---------------------------------------8-----8---------------|
:                                                                after
# bridge #B X8   /x=palm-muted             # bridge2 #A         bridgeB
E-----------/-----------------/--------|  E-----------------------| has played
B----------------------------------------|  B--play-24X-----------| X2
G--12-12-12------------10-10-9-----------|  G---------------------|
D--10-10-10-10-10-10-10-8--8-7-7-7-7-7---|  D--10-----------------| >>>>to
A----------------------------------------|  A--10-------pick------| next page...
E----------------------------------------|  E---8-------slide-----|
:
Then guitarA joins to guitarB and plays bridgeBX4.
>>>>>>>>>>>to next page...
:
:
:
:
:
:
RELEASE THE HOSTAGES                                                      2/2
:
# chorus2 #A&B  **=play 8X p-m  *=play 4X p-m  ##=play 6X  #=play 3X
E------------------------------------------------------------|
B------------------------------------------------------------|
G---**----**----**----*--*--**----**----##---#--#--##--------|
D---3-----5-----7-----7--5--3-----5----10---10--5--3-----5---|
A---3-----5-----7-----7--5--3-----5----10---10--5--3-----5---|
E---1-----3-----5-----5--3--1-----3-----8----8--3--1-----3---|
:
# outro #A   *=play 6X   b=bend-up
E----------------------------------------------------------------------|
B-----------------9b-99---------------------------9b-99----------------|
G----*-------*---10b---108108--8-----*-------*---10b---10810108--8-----|
D--10-------5----------------10-10-10-------5------------------10-10---|
A--10-------5----------------------10-------5--------------------------|
E---8-------3-----------------------8-------3--------------------------|
# outro #B   *=play 6X
E----------------------------------------------------------------------|
B----------------------------------------------------------------------|
G----*-------*-------*-------*-------*-------*-------*-------*---------|
D--10-------5-------3-------3------10-------5-------3-------3----------|
A--10-------5-------3-------3------10-------5-------3-------3----------|
E---8-------3-------1-------1-------8-------3-------1-------1----------|
:
# outro2 #A&B   !play all notes X6!
E-------------------------------------------------------|
B-------------------------------------------------------|
G-----------------------------------8------12-----------|
D--10-------5-------6-------6-------8------12-----------|
A--10-------5-------6-------6-------6------10-----TILT!-|
E---8-------3-------4-------4---------------------------|
:
FUCK!
Tabbed by Jussi Heinonen 05.08.1998.
Tap to rate this tab
# A B C D E F G H I J K L M N O P Q R S T U V W X Y Z