Song name
# A B C D E F G H I J K L M N O P Q R S T U V W X Y Z

Nofx - Xmas Has Been Xed tab

XMAS HAS BEEN X'ED
NOFX
tabbed bay:BEPPE


#intro

E/-----------------------------3------|
B/------5------------3-------3--------|
G/---0--------2------------4----------|
D/---------------0-3-----5------------|
A/3-----------------------------------|
E/------------------------------------|

E/------------------------------------------------------------|
B/------------------------------------------------------------|
G/5555-7777-----------5555-5555-7777--------------------------|
D/5555-7777-1212-1010-5555-5555-7777-1212-1010----------------|
A/3333-5555-8-8-7-7---3333-3333-5555-8-8-7-7------------------|
E/------------------------------------------------------------|

#verse

first part

PM---------------------------------------------|
E/---------------------------------------------|
B/---------------------------------------------|
G/5555-7777----------------5555-7777-----------|
D/5555-7777-5555-7777-3333-5555-7777-5555------|
A/3333-5555-5555-7777-3333-3333-5555-5555------|
E/----------3333-5555-1111-----------3333------|

second part

E/----------------------------------------------|
B/----------------------------------------------|
G/5555-7777-----------5555----------------------|
D/5555-7777-5555-7777-5555--3333-5555-----------|
A/3333-5555-5555-7777-3333--3333-5555-----------|
E/----------3333-5555-------1111-3333-----------|



#rit

E/--------------------------------------------|
B/--------------------------------------------|
G/5555-----------5555----------------55555----|
D/5555-3333-5555-5555-7777-3333-5555-55555----|
A/3333-3333-5555-3333-7777-3333-5555-33333----|
E/-----1111-3333------5555-1111-3333----------|


INTRO
VERSE
RIT
VERSE
RIT X2
Tap to rate this tab
 
# A B C D E F G H I J K L M N O P Q R S T U V W X Y Z