Song name
# A B C D E F G H I J K L M N O P Q R S T U V W X Y Z

Nofx - You Will Lose Faith Acoustic tab

-------------------------------------------------------------------------------
                             You Will Lose Faith Acoustic - NOFX
-------------------------------------------------------------------------------
Tabbed by: Pmdean95
E-mail: Pmdean95@gmail.com

Tuning: Standard

Intro:
e|--------------------|
B|--------------------|
G|--7-7-7777-77-7777--|
D|--x-x-xxxx-xx-xxxx--|
A|--5-5-5555-55-5555--|
E|--7-7-7777-77-7777--| x2


Pre-Verse 1:
e|--------------------------------------------------------------------|
B|--------------------------------------------------------------------|
G|--9-9-9999-99-99998-8-8888-88-88887-7-7777-77-77776-6-6666-66-6666--|
D|--x-x-xxxx-xx-xxxxx-x-xxxx-xx-xxxxx-x-xxxx-xx-xxxxx-x-xxxx-xx-xxxx--|
A|--7-7-7777-77-77776-6-6666-66-66665-5-5555-55-55554-4-4444-44-4444--|
E|--0-0-0000-00-00000-0-0000-00-00000-0-0000-00-00000-0-0000-00-0000--|

e|--------------------------------------------------------------------|
B|--------------------------------------------------------------------|
G|--9-9-9999-99-99998-8-8888-88-88887-7-7777-77-77776-6-6666-66-6666--|
D|--x-x-xxxx-xx-xxxxx-x-xxxx-xx-xxxxx-x-xxxx-xx-xxxxx-x-xxxx-xx-xxxx--|
A|--7-7-7777-77-77776-6-6666-66-66665-5-5555-55-55554-4-4444-44-4444--|
E|--7-7-7777-77-77777-7-7777-77-77775-5-5555-55-55555-5-5555-55-5555--|


Verse 1:
e|--------------------------------------------------------------------|
B|--------------------------------------------------------------------|
G|--9-9-9999-99-99998-8-8888-88-88887-7-7777-77-7777------------------|
D|--9-9-9999-99-99999-9-9999-99-99999-9-9999-99-99997-7-7777-77-7777--|
A|--7-7-7777-77-77776-6-6666-66-66665-5-5555-55-55557-7-7777-77-7777--|
E|--------------------------------------------------5-5-5555-55-5555--| x2


Chorus 1:
e|--------------------------------------------------------------------|
B|--------------------------------------------------------------------|
G|--9-9-9999-99-9999----------------7-7-7777-77-7777------------------|
D|--9-9-9999-99-99995-5-5555-55-55557-7-7777-77-77777-7-7777-77-7777--|
A|--7-7-7777-77-77775-5-5555-55-55555-5-5555-55-55557-7-7777-77-7777--|
E|--0-0-0000-00-00003-3-3333-33-3333----------------5-5-5555-55-5555--|

e|--------------------------------------------------------------------|
B|--------------------------------------------------0-0-0000-00-0000--|
G|--5-5-5555-55-55557-7-7777-77-7777----------------0-0-0000-00-0000--|
D|--5-5-5555-55-55557-7-7777-77-77775-5-5555-55-55552-2-2222-22-2222--|
A|--3-3-3333-33-33335-5-5555-55-55555-5-5555-55-55552-2-2222-22-2222--|
E|----------------------------------3-3-3333-33-33330-0-0000-00-0000--|

e|------------------------------------|
B|------------------------------------|
G|--5-5-5-55-55-55557-7-7-77-77-7777--|
D|--5-5-5-55-55-55557-7-7-77-77-7777--|
A|--3-3-3-33-33-33335-5-5-55-55-5555--|
E|------------------------------------|


Pre-Verse 2:
e|--------------------------------------------------------------------|
B|--9-9-9999-99-9999--------------------------------------------------|
G|--9-9-9999-99-99998-8-8888-88-88887-7-7777-77-77776-6-6666-66-6666--|
D|--x-x-xxxx-xx-xxxxx-x-xxxx-xx-xxxxx-x-xxxx-xx-xxxxx-x-xxxx-xx-xxxx--|
A|--7-7-7777-77-77776-6-6666-66-66665-5-5555-55-55554-4-4444-44-4444--|
E|--0-0-0000-00-00000-0-0000-00-00000-0-0000-00-00000-0-0000-00-0000--|

e|--------------------------------------------------------------------|
B|--------------------------------------------------------------------|
G|--9-9-9999-99-99998-8-8888-88-88887-7-7777-77-77776-6-6666-66-6666--|
D|--x-x-xxxx-xx-xxxxx-x-xxxx-xx-xxxxx-x-xxxx-xx-xxxxx-x-xxxx-xx-xxxx--|
A|--7-7-7777-77-77776-6-6666-66-66665-5-5555-55-55554-4-4444-44-4444--|
E|--7-7-7777-77-77777-7-7777-77-77775-5-5555-55-55555-5-5555-55-5555--|


Verse 2:
e|--------------------------------------------------------------------|
B|--------------------------------------------------------------------|
G|--9-9-9999-99-99998-8-8888-88-88887-7-7777-77-7777------------------|
D|--9-9-9999-99-99999-9-9999-99-99999-9-9999-99-99997-7-7777-77-7777--|
A|--7-7-7777-77-77776-6-6666-66-66665-5-5555-55-55557-7-7777-77-7777--|
E|--------------------------------------------------5-5-5555-55-5555--| x2


Chorus 2:
e|--------------------------------------------------------------------|
B|--------------------------------------------------------------------|
G|--9-9-9999-99-9999----------------7-7-7777-77-7777------------------|
D|--9-9-9999-99-99995-5-5555-55-55557-7-7777-77-77777-7-7777-77-7777--|
A|--7-7-7777-77-77775-5-5555-55-55555-5-5555-55-55557-7-7777-77-7777--|
E|--0-0-0000-00-00003-3-3333-33-3333----------------5-5-5555-55-5555--|

e|--------------------------------------------------------------------|
B|--------------------------------------------------0-0-0000-00-0000--|
G|--5-5-5555-55-55557-7-7777-77-7777-------5-55-55550-0-0000-00-0000--|
D|--5-5-5555-55-55557-7-7777-77-77775-5-5555-55-55552-2-2222-22-2222--|
A|--3-3-3333-33-33335-5-5555-55-55555-5-5555-55-55552-2-2222-22-2222--|
E|----------------------------------3-3-3333-33-33330-0-0000-00-0000--|

e|------------------------------------|
B|------------------------------------|
G|--5-5-5-55-55-55557-7-7-77-77-7777--|
D|--5-5-5-55-55-55557-7-7-77-77-7777--|
A|--3-3-3-33-33-33335-5-5-55-55-5555--|
E|------------------------------------|


Post-Chorus:
e|--------------------------------------------------------------------|
B|--9-9-9999-99-9999--------------------------------------------------|
G|--9-9-9999-99-99998-8-8888-88-88887-7-7777-77-77776-6-6666-66-6666--|
D|--x-x-xxxx-xx-xxxxx-x-xxxx-xx-xxxxx-x-xxxx-xx-xxxxx-x-xxxx-xx-xxxx--|
A|--7-7-7777-77-77776-6-6666-66-66665-5-5555-55-55554-4-4444-44-4444--|
E|--0-0-0000-00-00000-0-0000-00-00000-0-0000-00-00000-0-0000-00-0000--|

e|--------------------------------------------------------------------|
B|--------------------------------------------------------------------|
G|--9-9-9999-99-99998-8-8888-88-88887-7-7777-77-77776-6-6666-66-6666--|
D|--x-x-xxxx-xx-xxxxx-x-xxxx-xx-xxxxx-x-xxxx-xx-xxxxx-x-xxxx-xx-xxxx--|
A|--7-7-7777-77-77776-6-6666-66-66665-5-5555-55-55554-4-4444-44-4444--|
E|--7-7-7777-77-77777-7-7777-77-77775-5-5555-55-55555-5-5555-55-5555--|


Outro:
e|--------------------------------------------------------------------|
B|--------------------------------------------------------------------|
G|--------------------------7-7-7777----------------7-7-77778-8-8888--|
D|--2-2-22225-5-55557-7-7777x-x-xxxx2-2-22225-5-55557-7-77779-9-9999--|
A|--2-2-22225-5-55555-5-55555-5-55552-2-22225-5-55555-5-55556-6-6666--|
E|--0-0-00003-3-3333--------7-7-77770-0-00003-3-3333------------------| x3

e|----------------------------------------------------|
B|----------------------------------------------------|
G|--------------------------7-7-7777------------------|
D|--2-2-22225-5-55557-7-7777x-x-xxxx2-2-22225-5-5555--|
A|--2-2-22225-5-55555-5-55555-5-55552-2-22225-5-5555--|
E|--0-0-00003-3-3333--------7-7-77770-0-00003-3-3333--|

e|-------------|
B|-------------|
G|--7----------|
D|--7--(hold)--|
A|--5----------|
E|-------------|


************************************

| /   slide up
| \   slide down
| h   hammer-on
| p   pull-off
| ~   vibrato
| +   harmonic
| x   Mute note
| b   Bend
| pb  Pre-bend
| br  Bend release
| pbr Pre-bend release
| brb Bend release bend

************************************
Tap to rate this tab
 
# A B C D E F G H I J K L M N O P Q R S T U V W X Y Z